Song name
# A B C D E F G H I J K L M N O P Q R S T U V W X Y Z

Styx - These Are The Times tab

-These Are The Times-
STYX
Cyclorama, 2003

Intro/Verses:

e--------------------|
b-----------0--------|
g---------0---0---0--|
d-------4-------4----|                              < 2 Times
a-----2--------------|
E---0----------------|

e--------------------------------------------------|
b----------0---------------------------------------|
g--------0---0---0---------------------------------|
d------2-------2-----------------------------------|                           < 2 Times
a----3---------------------------------------------|
E--------------------------------------------------|


e------------------------------------------------|
b-------------0----------------------------------|
g--------0------0---0----------------------------|
d------2---2------2------------------------------|                          < 2 Times
a----0-------------------------------------------|
E------------------------------------------------|

e--------------------|
b-----------0--------|
g---------0---0---0--|
d-------4-------4----|                              < 2 Times
a-----2--------------|
E---0----------------|

REPEAT UNTIL CHORUS

CHORUS:

Em		C		Asus		C		G		D	Twice

VERSES


Bridge:  *Pouring light from the sky...*

B	C	A	B
B	C	A	B
B	C	A	B
B	C	A	B	A	G	F#	Em

VERSES
CHORUS
Tap to rate this tab
 
# A B C D E F G H I J K L M N O P Q R S T U V W X Y Z