Song name
# A B C D E F G H I J K L M N O P Q R S T U V W X Y Z

Styx - Love In The Night tab

-Love In The Midnight-
STYX
Cornerstone

Verses:

e----------------------------------|
b------------0---------------------|
g----------0---0---0---------------|
d--------4-------4-----------------|        < 2 Times
a------2---------------------------|
E---0------------------------------|

e--------------------------------------------|
b------------0-----------------0-------------|
g----------0---0------------2---2------------|
d--------3-------3--------2-------2----------|
a------2------------2---0------------0-------|
E---0-----------------0----------------------|

*Maybe itís the sign of a wise manÖ.*
D	Em		D	Em		D	Em		D	Bm

CHORUS:

Em	Em	Em	Bm	D	Em	Em	Em	Bm	D	Em	Em

Em	Em	Em	Em	Em	Bm	D	Asus	Em	D	Asus	Em

Asus	Em	D	Asus	Em

Em	Em	Em	Bm	D	Em	Em	Em	Bm	D	C	Asus


BRIDGE:

Em	G	Em	G	Em
Tap to rate this tab
# A B C D E F G H I J K L M N O P Q R S T U V W X Y Z