Song name
# A B C D E F G H I J K L M N O P Q R S T U V W X Y Z

Styx - Father Osa tab

e|-------------------------------------------------------------------------------------|
B|--1-7----------------------------------1-7-------------------------------------------|
G|---------10-9-10-9-10-------------------------10-9-10-9------------------------------|
D|-------------------------------------------------------------------------------------|
A|-------------------------------------------------------------------------------------|
E|-------------------------------------------------------------------------------------|

e|-------------------------------------------------------------------------------------|
B|--1-7------------------------------13------------------------------------------------|
G|---------10-9-10-9-10----------------------------------------------------------------|
D|-------------------------------------------------------------------------------------|
A|-------------------------------------------------------------------------------------|
E|-------------------------------------------------------------------------------------|
Tap to rate this tab
# A B C D E F G H I J K L M N O P Q R S T U V W X Y Z