Guitaretab - guitar tabs
Song name
# A B C D E F G H I J K L M N O P Q R S T U V W X Y Z

Subhumans - Wheres The Freedom tab

Subhumans - Where´s the Freedom

e:--------------|--------------|--------------|--------------|
b:--------------|--------------|--------------|--------------|
g:--------------|--------------|--------------|--------------|
d:5-5/7-7-7-7---|5-5/7-7-7-7---|5-5/7-7-7-7---|5-5/7-7-7-7---|2x
a:5-5/7-7-7-7---|5-5/7-7-7-7---|5-5/7-7-7-7---|5-5/7-7-7-7---|
e:--------------|--------------|--------------|--------------|

Verse
PM_________________________________
e:----------------|----------------|--------------|
b:----------------|----------------|--------------|
g:9-9-9-9-9-9-9-9-|9-9-9-9-9-9-9-9-|--8----8------|
d:9-9-9-9-9-9-9-9-|9-9-9-9-9-9-9-9-|9----9----9---|
a:7-7-7-7-7-7-7-7-|7-7-7-7-7-7-7-7-|--------------|
e:----------------|----------------|--------------|

PM_________________________________
e:----------------|----------------|
b:----------------|----------------|
g:9-9-9---8-8-8---|6-6-6---8-8-8---|
d:9-9-9---8-8-8---|6-6-6---8-8-8---| play a few times
a:7-7-7---6-6-6---|4-4-4---6-6-6---|
e:----------------|----------------|

We're going backwards
Into the sin of self-neglect
What do we stand for?
It's very easy to forget
The protest marches
Is it the done thing to object?
So where's the freedom?
Your conscience hangs around your neck

Chorus:
e:----------------|----------------|----------------|----------------|
b:----------------|----------------|----------------|----------------|
g:9-9-9-9-9-9-9-9-|8-8-8-8-8-8-8-8-|9-9-9-9-9-9-9-9-|8-8-8-8-8-8-8-8-|
d:9-9-9-9-9-9-9-9-|8-8-8-8-8-8-8-8-|9-9-9-9-9-9-9-9-|8-8-8-8-8-8-8-8-|
a:7-7-7-7-7-7-7-7-|6-6-6-6-6-6-6-6-|7-7-7-7-7-7-7-7-|6-6-6-6-6-6-6-6-|
e:----------------|----------------|----------------|----------------|

e:----------------|----------|
b:----------------|----------|
g:9-9-9-9-9-9-9-9-|11-x-13-x-|
d:9-9-9-9-9-9-9-9-|11-x-13-x-|
a:7-7-7-7-7-7-7-7-|09-x-11-x-|
e:----------------|----------|
[ Tab from: http://www.guitaretab.com/s/subhumans/106869.html ]
e:----------------|----------------|----------------|----------------|
b:----------------|----------------|----------------|----------------|
g:9-9-9-9-9-9-9-9-|8-8-8-8-8-8-8-8-|9-9-9-9-9-9-9-9-|8-8-8-8-8-8-8-8-|
d:9-9-9-9-9-9-9-9-|8-8-8-8-8-8-8-8-|9-9-9-9-9-9-9-9-|8-8-8-8-8-8-8-8-|
a:7-7-7-7-7-7-7-7-|6-6-6-6-6-6-6-6-|7-7-7-7-7-7-7-7-|6-6-6-6-6-6-6-6-|
e:----------------|----------------|----------------|----------------|

e:----------------|----------|
b:----------------|----------|
g:9-9-9-9-9-9-9-9-|11-x-13-x-|
d:9-9-9-9-9-9-9-9-|11-x-13-x-|
a:7-7-7-7-7-7-7-7-|09-x-11-x-|
e:----------------|----------|
Where's the freedom?

Verse:
We're going crazy
With paranoia, fear, and greed.
Accepting standards
Believing what we hear and read.
And when we think we've sussed out a new reality
But is this freedom just another hand from which we feed?

Chorus
Where's the freedom?


PM_________________________________
e:----------------|----------------|--------------|
b:----------------|----------------|--------------|
g:9-9-9-9-9-9-9-9-|9-9-9-9-9-9-9-9-|--8----8------|
d:9-9-9-9-9-9-9-9-|9-9-9-9-9-9-9-9-|9----9----9---|
a:7-7-7-7-7-7-7-7-|7-7-7-7-7-7-7-7-|--------------|
e:----------------|----------------|--------------|

e:----------------|
b:----------------|
g:9---------------|
d:9---------------|
a:7---------------|
e:----------------|

e:----------------|------------|------------|------------|------------|-------|
b:----------------|9--7--6--7--|9--7--6--7--|9--7--6--7--|------------|-------|
g:9--8--6-6-6-8---|------------|------------|------------|9--8--7--6--|5------|
d:----------------|------------|------------|------------|------------|-------|
a:----------------|------------|------------|------------|------------|-------|
e:----------------|------------|------------|------------|------------|-------|

Verse3:
e:--------------|--------------|--------------|--------------|
b:--------------|--------------|--------------|--------------|
g:--------------|--------------|--------------|--------------|
d:5-5/7-7-7-7---|5-5/7-7-7-7---|5-5/7-7-7-7---|5-5/7-7-7-7---|
a:5-5/7-7-7-7---|5-5/7-7-7-7---|5-5/7-7-7-7---|5-5/7-7-7-7---|
e:--------------|--------------|--------------|--------------|

We're going nowhere
In vicious circles we gyrate
The new sub-culture
With cliches painted on their face
We cannot see past
The elitest barriers we create.
We reject the system.
But put another in it's place

Chorus:
Where's the freedom? 

e:-------------|
b:-------------|
g:6--8--9--10--| repeat
d:6--8--9--10--|
a:4--6--7--08--|
e:-------------|

Where´s your Freedom?
Related for Wheres The Freedom tab
×
Best way to learn
"Wheres The Freedom"