Song name
# A B C D E F G H I J K L M N O P Q R S T U V W X Y Z

Subhumans - Ashtray Dirt tab

Help us improve GuitareTab! Take a short survey!
Subhumans - Ashtray Dirt

Verse
e:------------------------|
b:------------------------|
g:------12-12-14-14-13-13-|
d:14-14-12-12-14-14-13-13-|
a:14-14-10-10-12-12-11-11-|
e:12-12-------------------|

Your lungs have got a dirty stain
All you feel's a cancer pain
Fingers turned a sticky yellow color
Every one fag is less one hour of your life

Chorus
e:------------------------|
b:------------------------|
g:------------------------|
d:14-14-12-12-10-10-12-12-|
a:14-14-12-12-10-10-12-12-|
e:12-12-10-10-08-08-10-10-|

LIFE! LIFE! LIFE!

Verse:
Don't be a sucker and mess up your life
Smoking them fags from 9 to 5
You might as well eat the dirty dog-ends
You know you're going round the bend
They'll put you away

Chorus:
AWAY! ´WAY! ´WAY!

Solo
e:------------------------|------------------------|
b:------------------------|------------------------|
g:------------------------|12b-12b-12b-12b-12b-12b-|
d:12b-12b-12b-12b-12b-12b-|------------------------|
a:------------------------|------------------------|
e:------------------------|------------------------|

e:------------------------|------------------------|
b:------------------------|------------------------|
g:14b-14b-14b-14b-14b-14b-|12b-12b-12b-12b-12b-12b-|
d:------------------------|------------------------|
a:------------------------|------------------------|
e:------------------------|------------------------|

Verse
I dunno why you smoke them No. 6
A packet of fags is a packet of tricks
I dunno why you smoke them f**king cigars
You're gonna stay helpless the way you are

Chorus
...You were but now you're dead with your ashtray dirt 
Related for Ashtray Dirt tab