Song name
# A B C D E F G H I J K L M N O P Q R S T U V W X Y Z

Subhumans - All Gone Dead tab

Help us improve GuitareTab! Take a short survey!
Subhumans - All gone dead

e:----------------|
b:----------------|
g:9988776655443322|
d:9988776655443322|2x
a:7766554433221100|
e:----------------|

e:----------------|
b:----------------|
g:9-9-7-7-5-5-4-4-|
d:9-9-7-7-5-5-4-4-|2x
a:7-7-5-5-3-3-2-2-|
e:----------------|

NC
All is quiet, all is dead the city has melted
the sun is penetrated through our heads
the world has ended the gas has gone
it killed the people now the mutants live on

e:----------------|
b:----------------|
g:9---9---9--10---|
d:9---9---9--10---|4x as chorus
a:7---7---7---8---|
e:----------------|

So long the world
thats what they said
its 1984 and its all gone dead
dead dead dead

e:----------------|
b:----------------|
g:9-9-7-7-5-5-4-4-|
d:9-9-7-7-5-5-4-4-|2x
a:7-7-5-5-3-3-2-2-|
e:----------------|

NC
There is no England anarchy is right
but dont contradict or try to fight
its always darkthere is no light
and 77 had rose to its height

Chorus

They shouldnt have brought back hanging it caused a lot of fuss
no one could trust the government we had the fuckers sussed
there are no banks left they all went bust
and the houses of parliament is just a pile of dust

Chorus

Its 1984 and theres gonna be a war!
Related for All Gone Dead tab