Guitaretab - guitar tabs
Song name
# A B C D E F G H I J K L M N O P Q R S T U V W X Y Z

Subhumans - Animal tab

ANIMAL - Subhumans
Tabbed by: Taylor Sellers
Email: NoFX@herzeleid.net
Tuning: Standard

Bass Intro/Main Riff
G|------------------------------------|
D|------------------------------------|x2 (then guitar comes 
A|------------------------------------|    in with “Guitar Intro”)
E|--0-0-3-0-5-5-6-6-0-0-3-0-5-5-6-6---|

Guitar Intro (played live)
e|---------|
B|---------|
G|--7h9~~--|
D|---------|
A|---------|
E|---------|

Main Riff
e|---------------------| 
B|---------------------|
G|---------------------|
D|---------------------|x4
A|--2-2-5-5--7-7-8-8---|
E|--0—0-3-0--5-5-6-6---|
When switching from the G to the E, 
Its easier to lift your index finger
Than it is to do the complete chord change,
But if you can do it, by all means,
BE MY GUEST

Verse
e|--------------------------------------|
B|--------------------------------------|
G|--------------------------------------|
D|--------------------------------------|x2 (then play the fill 
A|--2-2-2-2-7-7-8-8--2-2-2-2-7-7-8-8----| then play it 2 more times)
E|--0-0-3-0-5-5-6-6--0-0-3-0-5-5-6-6----|
 PM..................................
[ Tab from: http://www.guitaretab.com/s/subhumans/142232.html ]
Guitar Fill Played After 
e|----------|Every Other
B|----------|Verse
G|-9--9-----|
D|-9--9-----|
A|-7--7-----|
E|----------|

Chorus              x10 Post-Chorus
e|--------------------||--------------------------------------------------------------|
B|--------------------||--------------------------------------------------------------|
G|--------------------||--------------------------------------------------------------|
D|---------------8----||-7~--7~---7\5~~-----------------5/7~~------------------7\5~~5-|
A|--7-7-7-7-7-7—-8----||-7~--7~---7\5~~-5-5-5-5-5-5-5-5------7-7-7-7-7-7-7-7-7-7\5~~5-|
E|--5-5-5-5-5-5--6----||-5~--5~---5\3~~-3-3-3-3-3-3-3-3------5-5-5-5-5-5-5-5-5-5\3~~3-|

Solo                                x4 Breakdown (only on the live version I think)
e|------------------------------------||-------------------------------|
B|---5----5----5----10----10----10----||-------------------------------|
G|---7^---7^---7^---12^---12^---12^---||-------------------------------|
D|------------------------------------||-------------------------------|x2
A|------------------------------------||--2--5-4-22~-2-5-4-2-2-5-4-2---|
E|------------------------------------||--0--3-2-00~-0-3-2-0-0-3-2-0---|
Related for Animal tab
Animal chords by Subhumans