Song name
# A B C D E F G H I J K L M N O P Q R S T U V W X Y Z

Subhumans - Big City tab

Tabbed by: Taylor
Email: NoFX@herzeleid.net

Tuning: Standard

INTRO:
e|-------------------------------|
B|-------------------------------|
G|----------7--7----------5--5---|
D|---9--9---7--7---7--7---5--5---|
A|---9--9---5--5---7--7---3--3---|
E|---7--7----------5--5----------|
P.M.............................

VERSE:
e|-------------------------------------|
B|-------------------------------------|
G|-------------------------------------|
D|-----------7--7-7------------5--5-5--|
A|--9--9-9---5--5-5---7--7-7---3--3-3--|
E|--7--7-7------------5--5-5-----------|

CHORUS:
e|-------------------------------------------------|
B|-------------------------------------------------|
G|-------------------------------------------------|
D|------------4-4-4-4------------------------------|
A|--6-6-6-6---2-2-2-2---4-4-4-4-4-4-4-4-4-4-4-4-4--|
E|--4-4-4-4-------------2-2-2-2-2-2-2-2-2-2-2-2-2--|
P.M.                    .........................


I'll tab out the solo later
Tap to rate this tab
 
# A B C D E F G H I J K L M N O P Q R S T U V W X Y Z