Song name
# A B C D E F G H I J K L M N O P Q R S T U V W X Y Z

Subhumans - Forget tab

------------------------------------------------------------------------------ 
Forget - Subhumans
From The Cradle To The Grave
------------------------------------------------------------------------------
Tabbed by: Matthew Holmes(axeslash)
Email: holmzito@yahoo.com

Tuning:EADGBE

Intro: Play Once
e|---------------------------------------------------------------------------|
B|-------------------------------------------------Trem.---------------------|
G|-16-16-16-16-16-16-16-16-16-16-16-16-16-16-16-16\\\\\\\\-------------------|
D|-14-14-14-14-14-14-14-14-14-14-14-14-14-14-14-14\\\\\\\\-------------------|
A|---------------------------------------------------------------------------|
E|---------------------------------------------------------------------------|
Verse: Play Twice
e|---------------------------------------------------------------------------|
B|---------------------------------------------------------------------------|
G|----------------------------------------16-16-16-16-16-16-16-16------------|
D|---999999999999999999999999999999999999-14-14-14-14-14-14-14-14------------|
A|---777777777777777777777777777777777777------------------------------------|
E|-pm|----------------------------------|------------------------------------|
Chorus: Play Once
e|---------------------------------------------------------------------------|
B|---------------------------------------------------------------------------|
G|-14-14-14-14-14-14-14-14-14-14-14-14-12-12-12-12-11-11-11-11-10-10-10-10---|
D|-14-14-14-14-14-14-14-14-14-14-14-14-12-12-12-12-11-11-11-11-10-10-10-10---|
A|-12-12-12-12-12-12-12-12-12-12-12-12-10-10-10-10--9--9--9--9--8--8--8--8---|
E|---------------------------------------------------------------------------|
Solo 1: Play Once
e|---------------------------------------------------------------------------|
B|---------------------------------------------------------------------------|
G|-15^--15^--15^--16-16-15-15-13----13-15^--15^--15^--16-16-15-15-13----13---|
D|-------------------------------15----------------------------------15------|
A|---------------------------------------------------------------------------|
E|---------------------------------------------------------------------------|

e|---------------------------------------------------------------------------|
B|---------------------------------------------------------------------------|
G|-15^--15^--15^--16-16-15-15-13----13-15^--15^--15^--16-16-15-15-13----13---|
D|-------------------------------15----------------------------------15------|
A|---------------------------------------------------------------------------|
E|---------------------------------------------------------------------------|

e|---------------------------------------------------------------------------|
B|---------------------------------------------------------------------------|
G|-7^--7-7^--7-7^-7-9^--9-9^--9-9^-9-11^--11-11^--11-11^-11-14^--14-14^--14--|
D|---------------------------------------------------------------------------|
A|---------------------------------------------------------------------------|
E|---------------------------------------------------------------------------|

e|---------------------------------------------------------------------------|
B|----------------------------------------------------------Trem.------------|
G|-14^-14-17^--17-17^--17-17^-17-19^--19-19^--19-19^--19-21~~~~~~~~\\\\\\\\--|
D|---------------------------------------------------------------------------|
A|---------------------------------------------------------------------------|
E|---------------------------------------------------------------------------|
Verse: Play Twice
e|---------------------------------------------------------------------------|
B|---------------------------------------------------------------------------|
G|----------------------------------------16-16-16-16-16-16-16-16------------|
D|---999999999999999999999999999999999999-14-14-14-14-14-14-14-14------------|
A|---777777777777777777777777777777777777------------------------------------|
E|-pm|----------------------------------|------------------------------------|
Chorus: Play Once
e|---------------------------------------------------------------------------|
B|---------------------------------------------------------------------------|
G|-14-14-14-14-14-14-14-14-14-14-14-14-12-12-12-12-11-11-11-11-10-10-10-10---|
D|-14-14-14-14-14-14-14-14-14-14-14-14-12-12-12-12-11-11-11-11-10-10-10-10---|
A|-12-12-12-12-12-12-12-12-12-12-12-12-10-10-10-10--9--9--9--9--8--8--8--8---|
Solo 2: Play Once
e|---------------------------------------------------------------------------|
B|---------------------------------------------------------------------------|
G|-7^--7-7^--7-7^-7-9^--9-9^--9-9^-9-11^--11-11^--11-11^-11-14^--14-14^--14--|
D|---------------------------------------------------------------------------|
A|---------------------------------------------------------------------------|
E|---------------------------------------------------------------------------|

e|---------------------------------------------------------------------------|
B|----------------------------------------------------------Trem.------------|
G|-14^-14-17^--17-17^--17-17^-17-19^--19-19^--19-19^--19-21~~~~~~~~\\\\\\\\--|
D|---------------------------------------------------------------------------|
A|---------------------------------------------------------------------------|
E|---------------------------------------------------------------------------|
Outro: Play Once
e|---------------------------------------------------------------------------|
B|---------------------------------------------------------------------------|
G|---9-9-9-9-9-9-9-9-9-9-9-9-9-9-9-9\----------------------------------------|
D|---9-9-9-9-9-9-9-9-9-9-9-9-9-9-9-9\----------------------------------------|
A|---7-7-7-7-7-7-7-7-7-7-7-7-7-7-7-7\----------------------------------------|
E|---------------------------------------------------------------------------|
Tablature Symbols Guide
|\      - Slide Down
|Trem.  - Tremolo Pick (alternate pick as fast as you can)
|pm |-| - Palm Mute
|^      - Whole Bend
|~      - Whole Bend And Hold

==============================================================================
Tap to rate this tab
 
# A B C D E F G H I J K L M N O P Q R S T U V W X Y Z