Song name
# A B C D E F G H I J K L M N O P Q R S T U V W X Y Z

Subhumans - Intro tab

Help us improve GuitareTab! Take a short survey!
This is the untitled Intro of the album From the Cradle to the Grave

e:--------------------|
b:--------------------|
g:--------1012--1012--|
d:9-9-9-9-1012--1012--|4x
a:9-9-9-9-8-10--8-10--|
e:7-7-7-7-------------|

e:--------------|
b:--------------|
g:--.---.---.---|
d:9-7-7-6-6-7---|
a:9-7-7-6-6-7---|
e:7-5-5-4-4-5---|

e:----------------|----------------|----------------|
b:----------------|----------------|9/1010109/101010|
g:----------------|----------------|8/9-9-9-8/9-9-9-|
d:7-7-7-7-7-7-7-7-|6/7-7-7-6/7-7-7-|6/7-7-7-6/7-7-7-|
a:7-7-7-7-7-7-7-7-|6/7-7-7-6/7-7-7-|----------------|
e:5-5-5-5-5-5-5-5-|4/5-5-5-4/5-5-5-|----------------|

e:------------------|------------------|------------------|
b:11/10101011/101010|11/10101011/101010|11/1011/1011/9/10-|
g:10/9-9-9-10/9-9-9-|10/9-9-9-10/9-9-9-|10/9-10/9-10/8/9--|
d:-8/7-7-7--8/7-7-7-|-8/7-7-7--8/7-7-7-|-8/7--8/7--8/6/7--|
a:------------------|------------------|------------------|
e:------------------|------------------|------------------|

e:--------------------|
b:--------------------|
g:--------1012--1012--|
d:9-9-9-9-1012--1012--|4x
a:9-9-9-9-8-10--8-10--|
e:7-7-7-7-------------|

e:--------------|
b:--------------|
g:--.---.---.---|
d:9-7-7-6-6-7---|
a:9-7-7-6-6-7---|
e:7-5-5-4-4-5---|
Related for Intro tab