Song name
# A B C D E F G H I J K L M N O P Q R S T U V W X Y Z

Subhumans - Germ tab

Germ, by SubHumAns
Tabbed by Jake Strange (Scumfuc)
Email:  jakestrange@chaosmagic.com

Main Riff/Verses:
e|----8---8--x--x--8---8----8-------x-6--6-x-x-6---6--6--x-6--|
B|---10--10--x--x-10--10---10-------x-8--8-x-x-8---8--8--x-8--|
G|----9---9--x--x--9---9----9---------7--7-x-x-7---7--7--x-7--|
D|--------------x--------------------------x------------------|
A|------------------------------------------------------------|
E|------------------------------------------------------------|

Chorus:
e|-------------------------------------------|
B|-------------------------------------------|
G|-------------------------------------------|
D|--5---------(5)---------7-7--7---7-7--7----|
A|--5---------(5)---------7-7--7---7-7--7----|
E|--3---------(3)---------5-5--5---5-5--5----|

Song ends by playing A & G chords along w/ a final solo.
I will try to add the solos if I can.
Tap to rate this tab
 
# A B C D E F G H I J K L M N O P Q R S T U V W X Y Z