Song name
# A B C D E F G H I J K L M N O P Q R S T U V W X Y Z

Subhumans - Not Me tab

ok this is a sumhumans song called "not me"
really easy song to play
i got this song from "EP/LP SERIES"
if anyone knows how to play "DRUGS OF YOUTH"SEND THEM TO ME

riff 1
---------------|
---------------|
---------------|
----7--9--10---|
----7--9--10---|
----5--7--8----|

riff 2
--------------------------|
--------------------------|
------4-2-4-------7-5-7---|
---7--4-2-4---10--7-5-7---|
---7--2-0-2---10--5-3-5---|
---5----------8-----------|
thats it.just get timing down and you got it.
Tap to rate this tab
# A B C D E F G H I J K L M N O P Q R S T U V W X Y Z