Song name
# A B C D E F G H I J K L M N O P Q R S T U V W X Y Z

Subhumans - Waste Of Breath tab

Help us improve GuitareTab! Take a short survey!
Subhumans - Waste of Breath

for comments: lavazza@everymail.net or in my UG-profile (lavazza)

pb: pre-bend 
PM: Palm-Mute
h: hammer-on
p: pull off
b: bend

Intro:
e:12--12--12-----|
b:15b-15b-15b-pb-|
g:---------------|
d:---------------|
a:---------------|
e:---------------|

Verse:
e:----------------|----------------|
b:----------------|----------------|
g:x-9-x-9-x-9-x-9-|5-5-5-5-5-5-5-5-| play the riff 6x (2x without voice)
d:x-9-x-9-x-9-x-9-|5-5-5-5-5-5-5-5-|
a:7---------------|3-3-3-3-3-3-3-3-|
e:----------------|----------------|

You paint your leather jacket but it comes off in the rain
The more you cut your hair the more it grows again
The badges (that) you pin on yourself fall off or start to rust
And the more they take the piss the less people you can trust

Pre-Chorus:
  PM______________
e:----------------|----------------|
b.----------------|----------------|
g:----------------|----------------|
d:2-2-2-2-4-4-4-4-|5-5-5-5-7-7-7-7-|
a:2-2-2-2-4-4-4-4-|5-5-5-5-7-7-7-7-|
e:0-0-0-0-2-2-2-2-|3-3-3-3-5-5-5-5-|

Chorus:
e:----------------|
b:----------------|
g:7-------9-------|
d:7-------9-------|
a:5-------7-------|
e:----------------|

Its the story of your live
And the end of its your death
And every word thats inbetween
Is just a waste of breathe

Verse
You dont know you might have been or who you now should be
Or what you ought to write on walls or why you wanna be free
And when you start to panic cos the inspirations there
But youre not sure how to use it and anyway no one seems to care

Pre-Chorus
Chorus

Solo
e:------------------|----------------|----------------|----------------|
b:------------------|--------6-9-6---|----------------|--------6-9-6---|
g:9-9-9-9-7h9p7-10-9|----7-9-------9-|9-9-9-9-7-10-9-7|----7-9-------9-|
d:------------------|7-9-------------|----------------|7-9-------------|
a:------------------|----------------|----------------|----------------|
e:------------------|----------------|----------------|----------------|

e:9-7-6--6h7p6-6h7p7|7-7-9-10-12-13-12-10|12-12-10h12p10-12-13-12-10|
b:------------------|--------------------|--------------------------|
g:------------------|--------------------|--------------------------|
d:------------------|--------------------|--------------------------|
a:------------------|--------------------|--------------------------|
e:------------------|--------------------|--------------------------|

e:10-10-10-10-10-10sd|
b:-------------------|
g:-------------------|
d:-------------------|
a:-------------------|
e:-------------------|

  PM______________
e:----------------|----------------|
b.----------------|----------------|
g:----------------|----------------|
d:2-2-2-2-4-4-4-4-|5-5-5-5-7---7-7-|
a:2-2-2-2-4-4-4-4-|5-5-5-5-7---7-7-|
e:0-0-0-0-2-2-2-2-|3-3-3-3-5---5-5-|


Verse
Youre the classical all-round failure who never seems to win
Youd like to write a book but youre not sure how to begin
Its the story of your life and the endof its your death
And every word thats inbetweenis just a waste of breathe

Pre-Chorus
Chorus
Related for Waste Of Breath tab