Song name
# A B C D E F G H I J K L M N O P Q R S T U V W X Y Z

Subhumans - Internal Riot tab

Help us improve GuitareTab! Take a short survey!
Internal Riot by Subhumans

feel free to comment: lavazza@everymail.net or on my UG profile (lavazza)

Riff1: (used in the verse several times)
e:---------------|
b:---------------|
g:---------6-----|
d:9-xxxxxx-6-7---|
a:9-xxxxxx-4-7---|
e:7-xxxxxx---5---|

I wanna complain cos I think i like it
I get deranged when itīs all gone quiet
Never have guessed the internal riot
I only drink cos it helps me think
I understand all the reasons why it

Riff2:
e:--------4---------|
b:2-4-2------5--5-4-|
g:------------------| 4x without text
d:------------------|
a:------------------|
e:------------------|

Riff1:
Burns like some communal strength
Unrealised hence unrealistic
Unite the world but what it meant
was needing targets less fantastic

Riff2:
e:--------4---------|
b:2-4-2------5--5-4-|
g:------------------| 4x without text
d:------------------|
a:------------------|
e:------------------|


A unity of mutiny against the lie
that weīre all free sparks A continuity
of inventionsparked by desperate glee
told itīs useless to keep on and on.....
Fired the reaction even more


Riff2 with:
Damned if youīre right Damned if youīre wrong

This is what the angerīs for (<- thatīs what Dick sings)
Related for Internal Riot tab