Song name
# A B C D E F G H I J K L M N O P Q R S T U V W X Y Z

Subkulture - Erasus tab

-------------------------------------------------------------------------------
			     ERASUS - Subkulture
-------------------------------------------------------------------------------
Tabbed by: Maaattyyyy
Email: matty_s_95@hotmail.co.uk

Tuning: Drop D

Kept switching between notes on the lead and I have gone with what I feel is 
the closest to it, any suggestions or corrections would be helpful, cheers:)

Legend:

************************************

| /   slide up
| \   slide down
| h   hammer-on
| p   pull-off
| ~   vibrato
| +   harmonic
| x   Mute note
| b   Bend
| pb  Pre-bend
| br  Bend release
| pbr Pre-bend release
| brb Bend release bend

************************************


Guitar 1 plays this throughout the song:

e|------------------------------------------------------------------|
B|------------------------------------------------------------------|
G|------------------------------------------------------------------|
D|------------------------------------------------------------------|
A|-3333333333333-7777-0000000000000000------------------------------|
D|-3333333333333-7777-0000000000000000------------------------------|

Guitar 2 plays this during verses and chorus (just got to listen out when)

e|-10---10-12----12-------------------10-10--12--12--12------10-----|
B|----8-------10------------------------8------10------10---------8-|
G|------------------9--7-9-10-12-------------------------9--10------|
D|------------------------------------------------------------------|
A|------------------------------------------------------------------|
D|------------------------------------------------------------------|

And also this during verses (Except the first one, I'm pretty sure 
it does the rest of the verses)

e|------------------------------------------------------------------|
B|------------------------------------------------------------------|
G|-10101010---14141414-7777-----------------------------------------|
D|-10101010---14141414-7777-----------------------------------------|
A|-8-8-8-8----12121212-5555-----------------------------------------|
E|------------------------------------------------------------------|

That's pretty much the basics to the song, there's alot of guitars 
and effects stacked into it and it would just be to much to tab out, 
Just Rememeber To Listen Out For The Timings!

Remember to Comment And Rate:)

Tap to rate this tab
# A B C D E F G H I J K L M N O P Q R S T U V W X Y Z