Sublime With Rome - Panic tab

Standard Tuning

Intro (You can choose to slide the 664 chord to 997 chord if you want to)
e------------------------------------------|
b------------------------------------------|
g-6-9--5-5-5--6-9--5-5-5--6-9-9-9--9-9-6-5-|
d-6-9--5-5-5--6-9--5-5-5--6-9-9-9--9-9-6-5-|
a-4-7--3-3-3--4-7--3-3-3--4-7-7-7--7-7-4-3-|
e------------------------------------------|

Verses (Comprised of two different parts.  Pretty straightforward when to play what)

Part 1 (time the rhythm)
e-1-1-1-1-1-1--4-4-4-4-4-4-|
b-1-1-1-1-1-1--4-4-4-4-4-4-|
g-2-2-2-2-2-2--5-5-5-5-5-5-| repeat
d-3-3-3-3-3-3--6-6-6-6-6-6-| as much
a-3-3-3-3-3-3--6-6-6-6-6-6-| needed
e-1-1-1-1-1-1--4-4-4-4-4-4-|

Part 2
e-------------------|
b-------------------|
g-5-5-5-5-6666-9999-| play either
d-5-5-5-5-6666-9999-| 1x or 2x
a-3-3-3-3-4444-7777-| pending on
e-------------------| part of song

Chorus (notes in parenthesis on high e string are optional)
e-4-4-4-4-(3)(3)(3)(3)-1-1-1-1-(4)(4)(4)(4)-|
b-4-4-4-4--5--5--5--5--1-1-1-1--6--6--6--6--|
g-5-5-5-5--5--5--5--5--2-2-2-2--6--6--6--6--|
d-6-6-6-6--5--5--5--5--3-3-3-3--6--6--6--6--|
a-6-6-6-6--3--3--3--3--3-3-3-3--4--4--4--4--|
e-4-4-4-4--------------1-1-1-1--------------|

Trumpet  Solo (I'll attempt to tab this out if this gets accepted)

Verse
Chorus

Solo
e------------------------------------------------------|
b---------------------2h4-44---------------------------|
g-555555-3---3-3h5-55---------555555-3---3-3h5--3------|
d----------6---------------------------6----------6--3-|
a------------------------------------------------------|
e------------------------------------------------------|

e----------------------------------------------|
b-------------------2h4-44---------------------|
g-555555-3---3h5-55---------55555555-6666-9999-|
d----------6----------------55555555-6666-9999-|
a---------------------------33333333-4444-7777-|
e----------------------------------------------|

e------------------------------|
b-12----12----12----12----12---|
g-14br--14br--14br--14br--14br-|
d------------------------------|
a------------------------------|
e------------------------------|

e------------------------------------------------------------------|
b-10h12----9-----9----------------9--------------------------------|
g-------10----10---10-8h10-10-10----10---10-8----------------------|
d---------------------------------------------10-9-8-6-8-6-8-6-----|
a--------------------------------------------------------------6-8-|
e------------------------------------------------------------------|

e--------------------------------------------------------------------------------|
b--------------------------------------------------------------------------------|
g-55555555-6666-9999-55555555-6666-9999-6-9--5-5-5--6-9--5-5-5--6-9-9-9--9-9-6-5-|
d-55555555-6666-9999-55555555-6666-9999-6-9--5-5-5--6-9--5-5-5--6-9-9-9--9-9-6-5-|
a-33333333-4444-7777-33333333-4444-7777-4-7--3-3-3--4-7--3-3-3--4-7-7-7--7-7-4-3-|
e--------------------------------------------------------------------------------|

Final Chorus
e-------------------------------------|
b-------------------------------------|
g----------55555555----------66666666-|
d-66666666-55555555-33333333-66666666-|
a-66666666-33333333-33333333-44444444-|
e-44444444----------11111111----------|

Outro
e-1-1-1-1-1-1--4-4-4-4-4-4-|
b-1-1-1-1-1-1--4-4-4-4-4-4-|
g-2-2-2-2-2-2--5-5-5-5-5-5-| repeat
d-3-3-3-3-3-3--6-6-6-6-6-6-| several
a-3-3-3-3-3-3--6-6-6-6-6-6-| times
e-1-1-1-1-1-1--4-4-4-4-4-4-|

e------------|
b-6--9--10~--|
g-6--9--10~--|
d-6--9--10~--|
a-4--7---8~--|
e------------|
Tap to rate this tab
 
# A B C D E F G H I J K L M N O P Q R S T U V W X Y Z