Sublime With Rome - Panic chords

Highlighted       Show chord diagrams
-------------------------------------------------------------------------------
			     Panic - Sublime With Rome
-------------------------------------------------------------------------------
Tabbed by: atticusalien

Words and chords transcribed by ear from New single. The lyrics I found online 
are not correct, so I tried my best to figure out what Rome is singing.


POWER CHORDS
e|---------------------------------------------------------------------------|
B|---------------------------------------------------------------------------|
G|---6---9---5---------------------------------------------------------------|
D|---6---9---5---6---3-------------------------------------------------------|
A|---4---7---3---6---3-------------------------------------------------------|
E|---------------4---1-------------------------------------------------------|
     C#  E   C   Ab  Fm

SKA CHORDS
e|---4---7---3---4---1-------------------------------------------------------|
B|---6---7---4---4---1-------------------------------------------------------|
G|---6---8---5---5---2-------------------------------------------------------|
D|-------9-------6---3-------------------------------------------------------|
A|---------------------------------------------------------------------------|
E|---------------------------------------------------------------------------|
     C#  E   C   Ab  Fm


C#	E	C
C#	E	C
C#	E	E
Fm	Ab
Fm	Ab

Fm
so many people running
Ab
dont know where they're going
Fm
you panic you panic you panic
Ab
showing no sign of slowing
Fm
i need a reason and
Ab 
I got to know

C                  C#       E 
dont you wish your word was money?

Fm
my only motive
Ab
for destruction
Fm
to get reaeaael 
Ab
in what we were

Fm
i need a reason and
Ab
I got to know

C                  C#       E 
dont you wish your word was money?
C                  C#       E  
dont you wish your……

Ab       C         Fm
you open doors and close them
C#               C        Ab
quicker than the hands of most
Ab        C                Fm
can't you see there's hope here
    C#
its time for reaction

Fm           Ab   x3

C        C#       E 

Fm
shut me up
Ab
somebody wake me up
Fm
i need a break from all your mental pollution
Ab
the real solution
Fm            Ab 
to all of the dumb things that you've done

C                  C#       E 
dont you wish your word was money?
C                  C#       E  
dont you wish your……

Ab       C         Fm
you open doors and close them
C#               C        Ab
quicker than the hands of most
Ab        C                Fm
can't you see there's hope here
C#           C
its time for reaction

Ab            C
realize whats wrong   
Fm
wrong with your life
C#               C        Ab
quicker than the eyes of most
Ab        C                Fm
can't you see there's hope here
    C#
its time for reaction

Fm           Ab   x3

C        C#       E 

Fm           Ab   x3

C        C#       E
C        C#       E

C#	E	C
C#	E	C
C#	E	E

Ab          C
how can you say?
         Fm
you dont wanna know
     C#             Ab
dont wanna know the truth

Ab          C
how can you say?
         Fm
you dont wanna know
     C#             Ab
dont wanna know the truth

Ab          C
how can you say?
         Fm
you dont wanna know
     C#             Ab
dont wanna know the truth

Fm          Ab
              Fm	Ab
And thats all right
         Fm	Ab
oh thats ok
              Fm	Ab
And thats all right

Ab?	E?	 ???
stop right there
Tap to rate this tab
 
# A B C D E F G H I J K L M N O P Q R S T U V W X Y Z