Sublime With Rome - Murdera tab

-----------------------------------------------------------------------------
			    MURDERA - Sublime with Rome
-----------------------------------------------------------------------------

Song: Murdera
Artist: Sublime with Rome
Album: Yours Truly
Tabbed by: rd93
Tuning: Standard (EADGBe)

The whole song is made up of just two guitar parts. Guitar 1 plays a simple two-chord progression:

Cm 8 10 10 8 8 8
Bb  6 8 8 7 6 6

Use ska-style upstrokes, except during the bridge, where you just let them ring 
like an acoustic guitar (I'm not tabbing out that saxophone or whatever it is that 
plays over that). The second guitar plays only during the chorus:

e|--------------------------------------------------------------------------|
B|--------------------------------------------------------------------------|
G|--------------------------------------------------------------------------|
D|-10----10-10-10--10---------8--8----10-10-10--10--------8--8--10----10-10-|
A|---------------------8--10-----------------------8--10--------------------|
E|--------------------------------------------------------------------------|

e|--------------------------------------------------------------------------|
B|--------------------------------------------------------------------------|
G|------------------------10-10-10--8-8-8--7-7-7------7---------------------|
D|-10--10---------8--8----------------------------10------------------------|
A|---------8--10-------------------------------------------10--10----8------|
E|--------------------------------------------------------------------------|

e|--------------------------------------------------------------------------|
B|--------------------------------------------------------------------------|
G|--------------------------------------------------------------------------|
D|--------------------------8----8--------8----10h12p10---10--8x8810-8------|
A|-8h10p8~--------0h5h8--10---------10---------------------------------10-8-|
E|--------------------------------------------------------------------------|
Tap to rate this tab
 
# A B C D E F G H I J K L M N O P Q R S T U V W X Y Z