Sublime With Rome - Panic Acoustic tab

Panic (Acoustic Version) [Bonus Track]
Sublime With Rome
Yours Truly (Deluxe Version) 
2011
TAbbed By: qwasrepo

Intro (slow Rhythm) 
e---------------------------------------------------|
b---------------------------------------------------|
g-x-x-x-x--6-9--5-5-5--6-9--5-5-5--6-9-9-9--9-9-6-5-|
d-x-x-x-x--6-9--5-5-5--6-9--5-5-5--6-9-9-9--9-9-6-5-|
a-x-x-x-x--4-7--3-3-3--4-7--3-3-3--4-7-7-7--7-7-4-3-|
e---------------------------------------------------|

Up Strokes + Speed up
e------1-1-1-1-----4-4-4-4-| x5
b------1-1-1-1-----4-4-4-4-|
g------2-2-2-2-----5-5-5-5-| 
d------3-3-3-3-----6-6-6-6-| 
a--3---3-3-3-3--6--6-6-6-6-|
e--1---1-1-1-1--4--4-4-4-4-|

e---------------------|
b---------------------|
g--5-5-5-5-6666-9999--| 
d--5-5-5-5-6666-9999--| 
a--3-3-3-3-4444-7777--| 
e---------------------|

e------1-1-1-1-----4-4-4-4-| x5
b------1-1-1-1-----4-4-4-4-|
g------2-2-2-2-----5-5-5-5-| 
d------3-3-3-3-----6-6-6-6-| 
a---3--3-3-3-3---6-6-6-6-6-|
e---1--1-1-1-1---4-4-4-4-4-|

e---------------------| x2
b---------------------|
g--5-5-5-5-6666-9999--| 
d--5-5-5-5-6666-9999--| 
a--3-3-3-3-4444-7777--| 
e---------------------|

e-----4-4--------3--3------1-1---|x2 |-4--4--|
b-----4-4--------5--5------1-1---|   |-6--6--|
g-----5-5--------5--5------2-2---|   |-6--6--|
d-----6-6------5-5--5------3-3---|   |-6--6--|
a---6-6-6------3-3--3----3-3-3---|   |-4--4--|
e---4-4-4----------------1-1-1---|   |-------|


e------1-1-1-1-----4-4-4-4-| x5
b------1-1-1-1-----4-4-4-4-|
g------2-2-2-2-----5-5-5-5-| 
d------3-3-3-3-----6-6-6-6-| 
a--3---3-3-3-3--6--6-6-6-6-|
e--1---1-1-1-1--4--4-4-4-4-|

e---------------------|
b---------------------|
g--5-5-5-5-6666-9999--| 
d--5-5-5-5-6666-9999--| 
a--3-3-3-3-4444-7777--| 
e---------------------|

e------1-1-1-1-----4-4-4-4-| x5
b------1-1-1-1-----4-4-4-4-|
g------2-2-2-2-----5-5-5-5-| 
d------3-3-3-3-----6-6-6-6-| 
a---3--3-3-3-3---6-6-6-6-6-|
e---1--1-1-1-1---4-4-4-4-4-|

e---------------------|x2
b---------------------|
g--5-5-5-5-6666-9999--| 
d--5-5-5-5-6666-9999--| 
a--3-3-3-3-4444-7777--| 
e---------------------|


e-----4-4--------3--3------1-1---|x4 |-4--4--|
b-----4-4--------5--5------1-1---|   |-6--6--|
g-----5-5--------5--5------2-2---|   |-6--6--|
d-----6-6------5-5--5------3-3---|   |-6--6--|
a---6-6-6------3-3--3----3-3-3---|   |-4--4--|
e---4-4-4----------------1-1-1---|   |-------|

e------1-1-1-1-----4-4-4-4-| x5
b------1-1-1-1-----4-4-4-4-|
g------2-2-2-2-----5-5-5-5-| 
d------3-3-3-3-----6-6-6-6-| 
a---3--3-3-3-3---6-6-6-6-6-|
e---1--1-1-1-1---4-4-4-4-4-|


e---------------------------------------------------1-1-1-1-----4-4-4-4-| x5
b---------------------------------------------------1-1-1-1-----4-4-4-4-|
g--------------------------5-5-5-5-6666-9999--------2-2-2-2-----5-5-5-5-| 
d--------------------------5-5-5-5-6666-9999--------3-3-3-3-----6-6-6-6-| 
a--------------------------3-3-3-3-4444-7777-----3--3-3-3-3---6-6-6-6-6-|
e------------------------------------------------1--1-1-1-1---4-4-4-4-4-|


e------------------------------------------|
b------------------------------------------|
g-6-9--5-5-5--6-9--5-5-5--6-9-9-9--9-9-6-5-|
d-6-9--5-5-5--6-9--5-5-5--6-9-9-9--9-9-6-5-|
a-4-7--3-3-3--4-7--3-3-3--4-7-7-7--7-7-4-3-|
e------------------------------------------|

e-4-4-4-4--3--3--3--3--1-1-1-1--4--4--4--4--|x4
b-4-4-4-4--5--5--5--5--1-1-1-1--6--6--6--6--|
g-5-5-5-5--5--5--5--5--2-2-2-2--6--6--6--6--|
d-6-6-6-6--5--5--5--5--3-3-3-3--6--6--6--6--|
a-6-6-6-6--3--3--3--3--3-3-3-3--4--4--4--4--|
e-4-4-4-4--------------1-1-1-1--------------|

 e|-4--4--|
 b|-6--6--|
 g|-6--6--|
 d|-6--6--|
 a|-4--4--|
 e|-------|



e------1-1-1-1-----4-4-4-4-| x5
b------1-1-1-1-----4-4-4-4-|
g------2-2-2-2-----5-5-5-5-| 
d------3-3-3-3-----6-6-6-6-| 
a---3--3-3-3-3---6-6-6-6-6-|
e---1--1-1-1-1---4-4-4-4-4-|

e------------|
b-6--9--10~--|
g-6--9--10~--|
d-6--9--10~--|
a-4--7---8~--|
e------------| 

Tap to rate this tab
 
# A B C D E F G H I J K L M N O P Q R S T U V W X Y Z