Song name
# A B C D E F G H I J K L M N O P Q R S T U V W X Y Z

Sublime With Rome - Can You Feel It chords

Highlighted       Show chord diagrams
-----------------------------------------------------------------
Can You Feel It  Sublime with Rome
-----------------------------------------------------------------
Tabbed by: Brian Zucker
Email: bnzucker@comcast.net
Tuning: Standard
    Gm      Cm
e|---3---3---3---3-----------------------------------------------|
B|---3---3---4---4-----------------------------------------------|
G|---3---3---5---5-----------------------------------------------|
D|---5---5---5---5-----------------------------------------------|
A|---5---5---3---3-----------------------------------------------|
E|---3---3---x---x-----------------------------------------------|

Tap to rate this tab
# A B C D E F G H I J K L M N O P Q R S T U V W X Y Z