Song name
# A B C D E F G H I J K L M N O P Q R S T U V W X Y Z

Sublime With Rome - Take It Or Leave It tab

If you can get the basic shape of a bar chord down this song is actually pretty simple.

Intro:

e|--------------------------------------------------|
B|--------------------------------------------------|
G|--------------------------------------------------|
D|-------7-----------7---------7---------7----------|
A|-----7---7-------7---7-----7---7-----7---7--------|
E|---5-----------5---------5---------5--------------|

You can also completely mute these strings while picking them.

Verse:

"She's got a knack for hurting me..."
e|-5---5---5---5-----2---2---2---2------------------|
B|-5---5---5---5-----2---2---2---2------------------|
G|-6---6---6---6-----3---3---3---3------------------|
D|-7---7---7---7-----4---4---4---4------------------|
A|-7---7---7---7-----4---4---4---4------------------|
E|-5---5---5---5-----2---2---2---2------------------|
(Repeat x2)
Use up-strokes if you want but when Rome plays it live he does not. Listen to the song 
to get the strumming down.

Pre-Chorus:

"I've packed my things a thousand times..."
e|-5---5---5---5-----7---7---7---7------------------|
B|-6---6---6---6-----8---8---8---8------------------|
G|-7---7---7---7-----9---9---9---9------------------|
D|-7---7---7---7-----9---9---9---9------------------|
A|-5---5---5---5-----7---7---7---7------------------|
E|--------------------------------------------------|
(Repeat x2)
Cut this first Pre-Chorus short by stopping after the four D chords and ending with the 
E on "For the last time".

Repeat the verse.

Repeat the Pre-Chorus playing through the last E chords.

Chorus:

"Take it or leave it..."
e|-5---5-----4---4-----2---2-----5---5-----------------|
B|-5---5-----5---5-----2---2-----5---5-----------------|
G|-6---6-----6---6-----3---3-----6---6-----------------|
D|-7---7-----6---6-----4---4-----7---7-----------------|
A|-7---7-----4---4-----4---4-----7---7-----------------|
E|-5---5---------------2---2-----5---5-----------------|

e|-5---5---5---5-----2---2---2---2---------------------|
B|-6---6---6---6-----3---3---3---3---------------------|
G|-7---7---7---7-----4---4---4---4---------------------|
D|-7---7---7---7-----4---4---4---4---------------------|
A|-5---5---5---5-----2---2---2---2---------------------|
E|-----------------------------------------------------|
(Repeat x2)

Repeat Intro.

Repeat Verse.

Repeat Pre-Chorus.

Repeat Chorus.

Bridge:

"I always feel incomplete..."
e|-5---5-------5---5----------|
B|-6---6-------5---5----------|
G|-7---7-------6---6----------|
D|-7---7-------7---7----------|
A|-5---5-------7---7----------|
E|-------------5---5----------|
(Repeat x3)
These are the two chords. Listen to the song because here the strumming changes.

"Her gesture is no match for..."
e|-3-----2-----5---------------|
B|-3-----2-----5---------------|
G|-4-----3-----6---------------|
D|-5-----4-----7---------------|
A|-5-----4-----7---------------|
E|-3-----2-----5---------------|
(Repeat x2)
The strumming changes again here. For the fist time play through the A chord by using 
the same strumming as above. For the second just hold it.

Repeat Chorus as much needed. And that's pretty much it! Good luck because this song is awesome!

This is my first tab so for corrections email schiavenato@gmail.com
Tap to rate this tab
 
# A B C D E F G H I J K L M N O P Q R S T U V W X Y Z