Song name
# A B C D E F G H I J K L M N O P Q R S T U V W X Y Z

Sublime With Rome - Can You Feel It tab

-----------------------------------------------------------------
SONG NAME - Can You Feel It
-----------------------------------------------------------------
Tabbed by: Siler
Email: siler.head@gmail.com

No tabs up for this wicked song yet so I figured I'd write it down for my fellow
guitar warriors. Shoot me an email if you have any corrections.

Tuning: EADGBe

Intro
e|----------------------------------------------------------------8~-----|
B|----8~---8-10-11-10-8-10-----------------8~-----8-10-11-10-11----------|
G|----------------------------------8~-----------------------------------|
D|-----------------------------------------------------------------------|
A|-----------------------------------------------------------------------|
E|-----------------------------------------------------------------------|
(Trumpet Fill)
e|--------------------------10-------------------------------------|
B|--------------8h10h11--------------------------------------------|
G|------8h10-------------------------------------------------------|
D|-----------------------------------------------------------------|
A|-----------------------------------------------------------------|
E|-----------------------------------------------------------------|

Verse/Chorus Chords
            Gm                               Cm
E|------3-x-----3-x-----3-x-----3/-8-------8-x------8-x-----8--x-----8\------------|
B|------3-x-----3-x-----3-x-----3/-8-------8-x------8-x-----8--x-----8\------------|
G|------3-x-----3-x-----3-x-----3/-8-------8-x------8-x-----8--x-----8\------------|
D|------5-x-----5-x-----5-x-----5/10------10-x-----10-x----10--x---0-10\-----------|
A|---------------------------------------------------------------------------------|
E|---------------------------------------------------------------------------------|
    “Can you feel it?”…

Chorus Riff
(palm muted)
e|------------------------------------------------------------------------------|
B|------------------------------------------------------------------------------|
G|------------------------------------------------------------------------------|
D|------------------------------------------------------------------------------|
A|--10-10-10-8-10-----8-10-8-10-8-10-8------------------------------------------|
E|---------------------------------------10-------8-8-8-6-8----6-8-6-8---6-6----|

e|---------------------------------------------------------------------------------------------|
B|---------------------------------------------------------------------------------------------|
G|---------------------------------------------------------------------------------------------|
D|---------------------------------------------------------------------------------------------|
A|-10-10-10-8-10-----8-10-8-10---10-8----------------------------------------------------------|
E|-------------------------------------------------10----8-8-8-6-8---6--6/8--6/8--6/8--6/8--6--|

e|-----------------------------------------------------------------------------------|
B|-----------------------------------------------------------------------------------|
G|-----------------------------------------------------------------------------------|
D|-----------------------------------------------------------------------------------|
A|--10-10-10-8-10-----8-10-8-10-8-10-8-----8---------------------------------5--5-8--|
E|--------------------------------------------------10--------8-8-8-6-8----6-8-6-8---|

e|--------------------------------------------------------------------|
B|--------------------------------------------------------------------|
G|--------------------------------------------------------------------|
D|--------------------------------------------------------------------|
A|-10-10-10-8-10-----8-10-8-10-----10-8-------------------------------|
E|-------------------------------------------------10------8-8-8-6-8--|


Verse
             Gm                                         Cm
E|------3-x-----3-x-----3-x-----3/-8-------8-x------8-x-----8--x-----8\--|
B|------3-x-----3-x-----3-x-----3/-8-------8-x------8-x-----8--x-----8\--|
G|------3-x-----3-x-----3-x-----3/-8-------8-x------8-x-----8--x-----8\--|
D|------5-x-----5-x-----5-x-----5/10-----10-x----10-x----10-x----10\-----|
A|-----------------------------------------------------------------------|
E|-----------------------------------------------------------------------|
     “I hold my breath”…


Chorus Chords x4
Intro x1  (when wiz enters)
Verse Chords

Solo

e|-----------10---10tr11----------10----10tr11--------------5—5tr6-----------6-------------|
B|-------11-----------------------11---------------------------6-------------------4----4--|
G|---12------------------------12---------------------------7-------------------5----------|
D|-----------------------------------------------------------------------------------------|
A|-----------------------------------------------------------------------------------------|
E|-----------------------------------------------------------------------------------------|

e|-----------10---10tr11----------10----10tr11---------14--11--10-----------------------|
B|-------11-----------------------11----------------------------------------13--11--12--|
G|---12------------------------12-------------------------------------------------------|
D|--------------------------------------------------------------------------------------|
A|--------------------------------------------------------------------------------------|
E|--------------------------------------------------------------------------------------|



| /  slide up
| \  slide down
| h  hammer-on
| p  pull-off
| ~  vibrato
| +  harmonic
| x  Mute note
Tap to rate this tab
# A B C D E F G H I J K L M N O P Q R S T U V W X Y Z