Guitaretab - guitar tabs
Song name
# A B C D E F G H I J K L M N O P Q R S T U V W X Y Z

Sublime - Saniteria tab

-------------------------------------------------------------------------------
			     Santeria - Sublime
-------------------------------------------------------------------------------

Tabbed by:Jaron
Email: hendrix128@msn.com

Tuning: standard
	
	Intro:
e|---------------------------------------------------------------------------|
B|------------------------4-----4-----------------5--------------7-----------|
G|------9-------9-----------5-----5--------6p4-------4h6p4---------8---------|
D|----9---9-------9-----------6-----6----6-----6---------------------9-------|
A|--7-------7-7----------6-------------4-------------------4/7\6-------6-----|
E|-------------------7\4-----------------------------------------------------|

	Verse: use up stokes 
e|-----------------4-----7---------------------------------------------------|
B|---9------4------5-----7---------------------------------------------------|
G|---9------5------6-----8---------------------------------------------------|
D|---9-x4---6-x4---6-x4--9-x4------------------------------------------------|
A|---7------6------4-----9---------------------------------------------------|
E|----------4------------7---------------------------------------------------|
	Ch: 
e|---5-------7-------------------------|-5-------7----------------------------|
B|-----5-------7-----9----7--------5---|---5-------7-----9---7--5-------------|
G|-------6-------8----9--8-------6---6-|-----6-------8----9-8-----6-----------|
D|---------7-------9-----------7-------|-------7-------9------------7---------|
A|---------------------------7---------|------------------------------7-------|
E|-------------------------------------|--------------------------------------|
[ Tab from: http://www.guitaretab.com/s/sublime/100563.html ]
e|---5--------7------------------------|-5------7-------|
B|-----5--------7--------9--7-------5--|---5------7-----|
G|-------6--------8----9--8------6--6-|-----6------8---|
D|---------7--------9-----------7-----5|------7-------9-|
A|----------------------------7--------|----------------|
E|-------------------------------------|----------------|
	Solo:
e|-------------------------------------------|-------------------------------|
B|-------------------------------------------|-------------------------------|
G|---------------911^13-11-9--8-8-8p68^9^8-|6-6p4---4----------------------|
D|----------9h11-----------------------------|------6---6p42h4p2---2--------|
A|---79h11----------------------------------|--------------------4---4-2----|
E|-------------------------------------------|-------------------------------|

e|-----------------------------|-7h9-9p7--------------------------------------|
B|--------------------------5--|---------9p7----------------------------------|
G|-------------------4h5h6-----|-------------9p6h99p6------------------------|
D|-------------4h5h6-----------|-----------------------9------9----------10-10|
A|-------2h3h4-----------------|-------------------------9/11---11-9--11--11--|
E|-2h3h4-----------------------|----------------------------------------------|

e|--------9-------------9----------------------------------------------------|
B|----------9-------------9--------------------------------------------------|
G|--11^13-----9-11^13------9-11^13^11---11^13^119-11-9--------------------|
D|---------------------------------------------------------------------------|
A|---------------------------------------------------------------------------|
E|---------------------------------------------------------------------------|



| ^  bend to the next note
| /  slide up
| \  slide down
| h  hammer-on
| p  pull-off
| ~  vibrato
| +  harmonic
| x  Mute note

===============================================================================

Related for Saniteria tab