Guitaretab - guitar tabs
Song name
# A B C D E F G H I J K L M N O P Q R S T U V W X Y Z

Sublime - Better Days tab

------------------------------------------------------------------------
Sublime - Better Days
------------------------------------------------------------------------

Tabbed By: Hobbes
Email: tjewell45@yahoo.com

Tuning: Standard

This is my first tab, so bear with me on any mistakes. Thereís not a lot
of guitar in this song, but what I have Iím pretty sure is correct.
[ Tab from: http://www.guitaretab.com/s/sublime/142545.html ]
Intro (Fast Strumming)
E|5----7--8--9----10--9----8--7--5-|
B|x----x--x--x----x---x----x--x--x-|
G|6----7--8--9----10--9----8--7--6-|
D|---------------------------------|
A|---------------------------------|
E|---------------------------------|

Verse
E|---------------------------------------0-|
B|---------------------------------------0-|
G|------------------4--------------------4-|
D|------5--------4-----4--------5--------5-|
A|0--4-----4--5-----------0--4-----4--5----|
E|-----------------------------------------|

Chorus
  Emaj    D7       A
E|---0-----------------|
B|---0-----------------|
G|---1-----------------|(x4)
D|2-------4--5--4--2---|
A|--------------------4|
E|---------------------|


Related for Better Days tab