Song name
# A B C D E F G H I J K L M N O P Q R S T U V W X Y Z

Sublime - The Youth Are Getting Restless tab

This is my first guitar tab.
Sublime - The Youth Are Getting Restless - Originally by Bad Brains

H=Hammer


Intro (Palm mute this)

e------------------------------------|
B------------------------------------|
G------------------------------------|
D------------------------------------|
A--------1--3h5-3h5-3h5-3h5-3h5------|
E-3-3-3-3-3--------------------------|

You basically play this through the whole song.
Do that slow upstroke sh** over and over.
Listen to song and hear how Brad Nowell plays it.

e-3----------------------------------|
B-3----------------------------------|
G-3----------------------------------|
D------------------------------------|
A------------------------------------|
E------------------------------------|

Then ocasionaly add (Palm mute)

e-----------------------------------|
B-----------------------------------|
G-----------------------------------|
D-----------------------------------|
A------------3-1--------------------|
E-3-3-3--1-1------------------------|

Just put it all together and see what you get. Like I said, listen to the song and 
how dude plays it.
Tap to rate this tab
# A B C D E F G H I J K L M N O P Q R S T U V W X Y Z