Song name
# A B C D E F G H I J K L M N O P Q R S T U V W X Y Z

Sublime - Same In The End tab

#----------------------------------PLEASE NOTE--------------------------------#
#This file is the author's own work and represents their interpretation of the#
#song. You may only use this file for private study, scholarship, or research.#
#-----------------------------------------------------------------------------#
#-- File created with Instab - http://www.pconline.com/~smcarey/instab.html --#
#-----------------------------------------------------------------------------#

Author/Artist: Sublime
Title: Same In The End
Transcribed by: Paulppaul
d strum down
u strum up
m mute
h hammer on
/ slide up

Standard Tuning

---------|-------|-----------------------------|------------------------------|
---------|-10----|-10--10--10--10--10--10--10--|------------------------------|
---------|-10----|-10--10--10--10--10--10--10--|------------------------------|
---------|-10h12-|-----------------------------|------------------------------|
---------|-------|-----------------------------|------------------------------|
---------|-------|-----------------------------|------------------------------|
           Pt.1    Verse   um  um   Palm Mute Verse and Play Pt.1 Inbetween

---------|---------|----------------------------------------------------------|
---------|---------|----------------------------------------------------------|
---------|---------|----------------------------------------------------------|
---------|---------|-3--3-3--10--10-10--7--7-7--12--12-10-8--8-8--3--3-3--7---|
---------|---------|-3--3-3--10--10-10--7--7-7--12--12-10-8--8-8--3--3-3--7---|
---------|-----13\-|-1--1-1--8---8--8---5--5-5--10--10-8--6--6-6--1--1-1--5---|
   Chorus            d  d u                     d   d  d                  d

----------------------------|--|----------------------------------------------|
----------------------------|--|----------------------------------------------|
----------------------------|--|----------------------------------------------|
-7-7-7-7-7-7-7-7-7-7-7-7-7--|--|----------------------------------------------|
-7-7-7-7-7-7-7-7-7-7-7-7-7--|--|----------------------------------------------|
-5-5-5-5-5-5-5-5-5-5-5-5-5--|--|----------------------------------------------|
 d u                     d

-----------------|--x-10-10-10--8--8-------------|--|---------------------|---|
-----------------|--x-10-10-10--8--8--12--10-10--|--|---------------------|---|
-----------------|--x-10-10-10--9--9--12--10-10--|--|---------------------|---|
-----------------|--------------------12---------|--|---------------------|---|
-----------------|-------------------------------|--|---------------------|---|
-----------------|-------------------------------|--|---------------------|---|
   Verse 2/3 Riff   d u  d  um  um um um  um um        Verse Riff 1 after

---------|--------|-------|---------------------------------------------------|
---------|--------|-------|---------------------------------------------------|
---------|--------|-------|---------------------------------------------------|
---------|--------|-------|---------------------------------------------------|
---------|--------|-------|-5-5--8--10--5-5--8--10--8--10--8--5--8--10--8--10-|
---------|--------|-------|---------------------------------------------------|
           Chorus  Verse 3  Solo Out

---------------------------------------------------------|--------------------|
---------------------------------------------------------|--------------------|
---------------------------------------------------------|--------------------|
---------------------------------------------------------|--------------------|
-8--5--8--10--10/12---10/12--10\8--8--7/8\7-5-v-v-vvv-vv-|--------------------|
---------------------------------------------------------|--------------------|
Tap to rate this tab
# A B C D E F G H I J K L M N O P Q R S T U V W X Y Z