Song name
# A B C D E F G H I J K L M N O P Q R S T U V W X Y Z

Sublime - Caress Me Down tab

AARTIST: Sublime
ALBUM: Stand By Your Van (Live)
SONG: Caress Me Down
YEAR: 1998
TABBED BY: and frosting

Intro:

        guitar 1
e|------------------------------------------------------------|
B|------------------------------------------------------------|
G|------------------------------------------------------------|
D|------------------------------------------------------------|
A|------------------------5-4---------------------------------|
E|---4h5-55-4h5-55-4h5-55-------------------------------------|x2

e|-------------------------------5----5---5----5----5---------|
B|-------------------------------5----5---5----7----5---------|
G|-------------------------------6----6---6----7----6---------|
D|-------------------------------7----7---7----7----7---------|
A|-------------------------5-4---7----7---7----5----7---------|
E|---4h5-55-4h5-55-4h5-55--------5----5---5---------5---------|

e|---5---5---5---7---5----------------------------------------|
B|---5---5---5---9---5----------------------------------------|
G|---6---6---6---9---6----------------------------------------|
D|---7---7---7---9---7----------------------------------------|
A|---7---7---7---7---7----------------------------------------|
E|---5---5---5-------5----------------------------------------|

Verse/Chorus:


	guitar 1
e|---------5----5---5----5----5-----5--5---5----7--5----------|
B|---------5----5---5----7----5-----5--5---5----9--5----------|
G|---------6----6---6----7----6-----6--6---6----9--6----------|
D|---------7----7---7----7----7-----7--7---7----9--7----------|
A|---------7----7---7----5----7-----7--7---7----7--7----------|
E|---------5----5---5---------5-----5--5---5-------5----------|

	guitar 2 (or bass)
e|------------------------------------------------------------|
B|------------------------------------------------------------|
G|------------------------------------------------------------|
D|------------------------------------------------------------|
A|---------------------5-5---------------------7-7------------|
E|----4h5-55---4h5-55---------5--4h5-55--4h5-55-------5-------|


	Just repeat the verse/chorus for the rest of the song. That is pretty much it. Post on
UG page for corrections, tips, etc. It's hard to get the rhythm down in a tab, so listen
the song to get the feel for it. I know that this is really vague, but it's got a kind 
ska/blues pacing.
Tap to rate this tab
 
# A B C D E F G H I J K L M N O P Q R S T U V W X Y Z