Song name
# A B C D E F G H I J K L M N O P Q R S T U V W X Y Z

Sublime - Djs tab

-------------------------------------------------------------------------------
			   DJ's - Sublime
-------------------------------------------------------------------------------
Tabbed by:Vtrillo627
Email:it_dies_today84@yahoo.com

Tuning:Standard

40 Oz. To Freedom version



All of the DJs surely have taken a lesson
Start talkin' trash and I'll come with my Smith and Wesson


Verse 1:
          
A little competition comes my way        
And it always winds up the same          
But the stone that the builder refused   
Shall be the head cornerstone            

      C#
e|----------|
B|----6-----|
G|----6-----|  ska strokes
D|----6-----|
A|----4-----|
E|----------|



Chorus 1:

Bm                               Fm
Oh, but there ain't nothin' wrong
Bm                 Fm
Ain't nothin' right
       F#            C#           Ab
still I sit and lie awake all night


Lead:

e|-------------------------------------------------|
B|-------------------------------------------------|
G|-------------------------------------------------|
D|-----------6-8-----------6-------8-11------------|
A|-----4-6-8---------4-6-8---8---9--------8-11-----|
E|---6-------------6--------------------9----------|



Verse 2:

All of the DJs surely have taken a lesson
Try talkin' trash and I'll come with my Smith and Wesson

Lead: 
   
e|-------------------|
B|-------------------|
G|---6-4---4-6-------|
D|-------6-----------|
A|-------------------|
E|-------------------|

Enough DJs come with enough, enough stylee
But when I bust my lyrics we all know it's wicked and wiley


     C#
e|----------|                e|-------------------|
B|----6-----|                B|-------------------|
G|----6-----|  ska strokes   G|---6-4---4-6-4-----|
D|----6-----|                D|-------6-------6---|
A|----4-----|                A|-------------------|
E|----------|                E|-------------------|



Chorus 2:

Bm                               Fm
Oh, but there ain't nothin' wrong
Bm                 Fm
Ain't nothin' right
       F#            C#           Ab
still I sit and lie awake all night


Lead:

e|-------------------------------------------------|
B|-------------------------------------------------|
G|-------------------------------------------------|
D|-----------6-8-----------6-------8-11------------|
A|-----4-6-8---------4-6-8---8---9--------8-11-----|
E|---6-------------6--------------------9----------|



Verse 3:

Oh, you better be strapped with your Gat if you wan walk
with me
I bound to come down with the new stylee
Rockin' rubadub known as reggae music
Gonna come down with the new lyrics

'Cause it
Just ain't no thing
Oh, I said
It's been a real long time

     C#
e|----------|
B|----6-----|
G|----6-----|  ska strokes
D|----6-----|
A|----4-----|
E|----------|



Chorus 3:

Bm                               Fm
Oh, but there ain't nothin' wrong
Bm                 Fm
Ain't nothin' right
       F#            C#           Ab
still I sit and lie awake all night


Lead:

e|-------------------------------------------------|
B|-------------------------------------------------|
G|-------------------------------------------------|
D|-----------6-8-----------6-------8-11------------|
A|-----4-6-8---------4-6-8---8---9--------8-11-----|
E|---6-------------6--------------------9----------|



Verse 4:

Rubadub blender
A newer mixer so
I am one DJ with enough flava
It go
Here I go, here I'm come
Heara the dubbed down DJ
Lord have his grilled cheese
I mean, ah
I am Jamaican, but I ain't no freak
I caught the man Ino with a ten pound bag of tweak
(Ha, ha, ha, tweakin')
(D*m*)
Hold on, though we call it ghost rider
Every time we see them you fulfill the danger, wa, wa

     C#
e|----------|
B|----6-----|
G|----6-----|  ska strokes
D|----6-----|
A|----4-----|
E|----------|



Chorus 4:

Bm                               Fm
Oh, but there ain't nothin' wrong
Bm                 Fm
Ain't nothin' right
       F#            C#           Ab
still I sit and lie awake all night


Lead:

e|-------------------------------------------------|
B|-------------------------------------------------|
G|-------------------------------------------------|
D|-----------6-8-----------6-------8-11------------|
A|-----4-6-8---------4-6-8---8---9--------8-11-----|
E|---6-------------6--------------------9----------|


Verse 5: (Bass only)

Dreddy got a job to do
And we might fulfill his mission
To see his pain would be his greatest ambition
But, ah, we will survive in this world of competition
Shooting guns and our ammunition



Bridge:

     C#         F#         Ab
e|--------------2----------4-------|
B|---6----------2----------4-------|
G|---6----------3----------5-------|
D|---6----------4----------6-------|
A|---4-----------------------------|
E|---------------------------------|

Lead: 

e|----------------------------------------------|
B|--------------------------2--------4----------|
G|-------------------------3------5---5---------|
D|------3-6---3--6-3----444------6-6---6--------| x2
A|---444-----4--4---4---------------------------|
E|----------------------------------------------|



Verse 6: (Bass only)

I won't wait so long, mmm
I said I won't wait so long for you

Oh, oh, yeah
Mmm, mmm
Ooh, oh Hard to get so
Much Mmm, mmm

Stop your messing around
Better think of your future
Time you straighten right out
Or you'll wind up in jail

************************************

| /   slide up
| \   slide down
| h   hammer-on
| p   pull-off
| ~   vibrato
| +   harmonic
| x   Mute note
| b   Bend
| pb  Pre-bend
| br  Bend release
| pbr Pre-bend release
| brb Bend release bend

************************************
Tap to rate this tab
 
# A B C D E F G H I J K L M N O P Q R S T U V W X Y Z