Guitaretab - guitar tabs
Song name
# A B C D E F G H I J K L M N O P Q R S T U V W X Y Z

Sublime - Rivers Of Babylon tab

INFO: This religiously-themed song is a hidden track on 40 oz. to Freedom and was originally recorded by The Melodians.


INTRO:

                         G                         G                         D
E:-------------|-----3-3---3-3-------------|---3-3---3-3--------------|----2-2---2-2--|
B:-------------|-----3-3---3-3-------------|---3-3---3-3--------------|----3-3---3-3--|
G:-------------|-----0-0---0-0-------------|---0-0---0-0--------------|----2-2---2-2--|
D:-------------|-----0-0---0-0-------------|---0-0---0-0--------------|--0-0-0-0-0-0--|
A:-------2-2-3-|-----2-2---2-2-------2-2-3-|---2-2---2-2-----2-2-3-3-2|---------------|
E:---3-3-------|-3-3-3-3-3-3-3---3-3-------|-3-3-3-3-3-3-3------------|---------------|

             G
E:-------3-3---3-3--|
B:-------3-3---3-3--|
G:-------0-0---0-0--|
D:-------0-0---0-0--|
A:-------2-2---2-2--|
E:---3-3-3-3-3-3-3--|

VERSE:

G
By the rivers of Babylyon
G
Where he sat down
              D                     G
And there he wept when he remebered Zion

G                             C
Oh from wicked, carry us away from captivity  
G
Required from us a song
G                                  D         G
How can we singing out for song in a strange land

G                      D   
So let the words of our mouth
G                        D
And the meditations of our hearts
G                     D
Be acceptable in thy sight
D  G
O-verride

G
By the rivers of Babylyon
G
Where he sat down
             D                      G
And there he wept when he remebered Zion
G                                  C
Oh from wicked, carry us away from captivity
G
Required from us a song
G                                     D      G
How can we singing out for song in a strange land
G                                     D      G 
How can we singing out for song in a strange land


[ Tab from: http://www.guitaretab.com/s/sublime/23117.html ]
Related for Rivers Of Babylon tab
×
Best way to learn
"Rivers Of Babylon"