Song name
# A B C D E F G H I J K L M N O P Q R S T U V W X Y Z

Sublime - April 29 1992 tab

This is all I no and it sounds rite to me and anyone hoo thinks otherwise can go suck a lemon!

INTRO
e|-----------------------------|
B|-----------------------------|
G|-----------------------------|
D|-----------------------------|
A|-5-5-5-3-3--3-5-5-5------3333|
E|----5-----33-------5-1111----|

 VERSE
e|------------------------|
B|------------------------|
G|-------------5x-5x-5x-5x|
D|-5x-5x-5x-5x-5x-5x-5x-5x|
A|-5x-5x-5x-5x-3x-3x-3x-3x|
E|-3x-3x-3x-3x------------|

CHORUS
e|---------------------------|
B|---------------------------|
G|---------------------------|
D|----3-5----3-5---3-5----3-5|
A|-5-5---5555---5-5---5555---|
E|---------------------------|

e|------------------------------|
B|------------------------------|
G|------------------------------|
D|------------------------------|
A|-5-543-3--3--5-5-5--------3333|
E|--5-----33------5-----1111----|

(VERSE)

(CHORUS)
Tap to rate this tab
 
# A B C D E F G H I J K L M N O P Q R S T U V W X Y Z