Song name
# A B C D E F G H I J K L M N O P Q R S T U V W X Y Z

Sublime - Saw Red tab

Saw Red
Sublime - Robbin The Hood
Standard tuning    E A D G B E

Email if you spot any mistakes (danielt812@gmail.com)


h=hammer on
v=vibrato
^bend and hold
p=pulloff

Intro (Distortion)
e-----------------------------------------------------|
B-----------------------------------------------------|
G-----------5h7p5-7/-slide down-----------------------|
D--5v--4v---------------------------------------------|
A-----------------------------------------------------|
E-----------------------------------------------------|

Verse 1 (Clean)

e------8--8--8--8--6--6--6--6--------------------------|
B------8--8--8--8--6--6--6--6--------------------------|
G------9--9--9--9--7--7--7--7----x10 ------------------|
D-----10-10-10-10--8--8--8--8--------------------------|
A------x--x--x--x--x--x--x--x--------------------------|
E------x--x--x--x--x--x--x--x--------------------------|

Chorus (Distortion)
(Not the exact strumming pattern, but gives you a clear idea of it)
e----------------------------------------------------------|
B----------------------------------------------------------|
G---5555555555-3333333333-----------------------5555555555-|
D---5555555555-3333333333----3-x-33-x-5-x-55-x--5555555555-|
A---3333333333-1111111111----3-x-33-x-5-x-55-x--3333333333-|
E----------------------------1-x-11-x-3-x-33-x-------------|


e------------------------------------------------------------|
B------------------------------------------------------------|
G---5-x-55-5-x-55-x--3-x-33-3-x-33-x-------------------------|
D---5-x-55-5-x-55-x--3-x-33-3-x-33-x---3333333333-5555555555-|
A---3-x-33-3-x-33-x--1-x-11-1-x-11-x---3333333333-5555555555-|
E--------------------------------------1111111111-3333333333-|

Verse 2, same as verse 1 (Clean)

Chorus, same as chorus above (Distortion)

Bridge (Clean)

e---8--8--8--8--6--6--6--6------------------------------------|
B---8--8--8--8--6--6--6--6------------------------------------|
G---9--9--9--9--7--7--7--7----x2 --------10-9-7-------10-9-7--|
D--10-10-10-10--8--8--8--8--------10--8---------10--8---------|
A---x--x--x--x--x--x--x--x------------------------------------|
E---x--x--x--x--x--x--x--x------------------------------------|

Outro (Distortion)

e----------------------------------------------------------------|
B----------------------------------------------------------------|
G-----------5h7p5-7/-slide down----------------------------------|
D--5v--4v--------------------------------------------------------|
A----------------------------------------------------------------|
E----------------------------------------------------------------|

End (Clean)

e---8--------------------|
B---8-(let ring)---------|
G---9--------------------|
D--10--------------------|
A------------------------|
E------------------------|

Daniel Tolan
Rate It please!!!
Tap to rate this tab
 
# A B C D E F G H I J K L M N O P Q R S T U V W X Y Z