Song name
# A B C D E F G H I J K L M N O P Q R S T U V W X Y Z

Sublime - Santeria tab

Looks like I am tabbin my third entry now. Here is a cool song from the self titled. I recommend playing Santeria on an accoustic, it sounds cooler.

intro
E----------------------------------------------------------------------------------------
B-------------9-------------4--------------4------------------6----------------7---------
G---9--9--------7--------------5---------5----5---6--6------------6---------------8------
D---9----9--------7---------------6---------------6-----6------------6--6\--9-------9----
A---7------7---------7\--------------6------------4--------4------------4\--9---------9--
E-----------------------4---------------------------------------------------7------------

 repeat 1x      Verse (upstrk\ska)
E----------] -x--9-x-9-x-9-x-9-x--4-x-4-x-4-x-4-x--4-x-4-x-4-x-4-x--7-x-7-x-7-x-7--]
B------7---] -x--9-x-9-x-9-x-9-x--4-x-4-x-4-x-4-x--5-x-5-x-5-x-5-x--7-x-8-x-8-x-8--]
G---8----8-] -x--9-x-9-x-9-x-9-x--5-x-5-x-5-x-5-x--6-x-6-x-6-x-6-x--8-x-8-x-8-x-8--]
D----------] -x--7-x-7-x-7-x-7-x--6-x-6-x-6-x-6-x--6-x-6-x-6-x-6-x--9-x-9-x-9-x-9--]
A----------] ------------------x--6-x-6-x-6-x-6-x--4-x-4-x-4-x-4-x--9-x-9-x-9-x-9--]
E----------] ------------------x--4-x-4-x-4-x-4-x--4-x-4-x-4-x-4-x--7-x-7-x-7-x-7--]

chorus(chords) /overdub
E--4--4-x-x--7--7-x-x--4--4-x--9-9-9-9--]  -------5-----7------------------------5---7---
B--5--5-x-x--7--7-x-x--4--4-x--9-9-9-9--]  ---------5-----7---9---------------5---5---7-9
G--6--6-x-x--8--8-x-x--5--5-x--9-9-9-9--]  -----------6-----8---9\8----8\6---6--6-------9
D--6--6-x-x--9--9-x-x--6--6-x--9-9-9-9--]  ---------------------------------6-------7---7
A--4--4-x-x--9--9-x-x--6--6-x--7-7-7-7--] Chorus---------------------6-----4-------------
E-------x-x--7--7-x-x--4--4-x--7-7-7-7--] (guitar 2)-------------------------------------


solo
E----------------------------------------------------------------------------------------
B--------------------------------------------------------------------------------------
G----------------9-11(b)-11-9-8(b)-8\6-8(b)--6-6\4---4----------------------------------
D-----------9h-11----------------------------------6---4(b)-2\4\2---2-------------------
A--7(b)-9\11------------------------------------------------------4---4(b)--------0h2h4-
E--------------------------------------------------------------------------0h2h4h-------


solo(cont)
E----------------------9--------------------------------------------------------------
B---------------5\12----12--9---------------------------------------------------------
G--------0h4h6-----------------11-11-9-h11p9------------------------------------------
D--0h2h4--------------------------------------11-9-h11p9----------------10-----10-----
A---------------------------------------------------------11--9\7\9--11-----11--------
E--------------------------------------------------------------------------------------

solo(cont)    (goes to chorus 1 more time after solo)
E----11(B)-9-------11(B)---9--------------------] Ending--
B----11------9-----11--------9------------------] -----------------(repeat 1x)
G----11---------9--11----------9--9h119-----9---] ---9-8-6-4-2-4-1--
D----------------------------------------11---11] ---9-8-6-4-2-4-2--
A-----------------------------------------------] ---7-6-4-2-0-2-2--
E-----------------------------------------------] ------------------

Well thats it. Questions e-mail iconoclastfrag12@aol, enjoy.
Tap to rate this tab
 
# A B C D E F G H I J K L M N O P Q R S T U V W X Y Z