Song name
# A B C D E F G H I J K L M N O P Q R S T U V W X Y Z

Sublime - Pawn Shop tab

This is a great song from Sublime called "Pawn Shop".  Hope you like it!!!

e|----------|
B|----------|
G|----------|
D|-----5----| X4
A|-5h7---7--|
E|----------|

e|---------------|
B|---------------|
G|-------------7-|
D|-7/9-7/5-7/9---| X1
A|---------------|
E|---------------|

e|-------------------------|
B|-------------------------|
G|-----------------7-------|
D|-7/9-7/5---5-7/9---9-7-9-| X4
A|---------7---------------|
E|-------------------------|

e|-----------------------------------------------------------10------------|
B|-----8---------8--------------------8----10/12-10----10-12----12-10------|
G|-7-9---9--7-7-9--9-9-7-------7--7-9---9-----------12----------------12-9-|
D|-----------------------9-7-9---------------------------------------------|
A|-------------------------------------------------------------------------|
E|-------------------------------------------------------------------------|

e|----------10----------10-15-12-10-10-12-15-12-12-10-------------------|
B|----10-12----12-10-12-------------------------------12-10-12-8-10-5/0-|
G|-12-------------------------------------------------------------------|
D|----------------------------------------------------------------------| X1
A|----------------------------------------------------------------------|
E|----------------------------------------------------------------------|

e|------------------------|
B|------------------------|
G|------------------------|
D|----5-5-----5-5---------| X4
A|-5h7----5h7-----7p5---7-|
E|--------------------7---|


e|-----|
B|-----|
G|-7-9-|
D|-7-9-| X1
A|-5-7-|
E|-----|

That's pretty much the entire song.  There's just some variations on the middle part, 
you can listen to the recording for that.  During the Verses, just keep the last two power 
going, nice and slow.
Tap to rate this tab
 
# A B C D E F G H I J K L M N O P Q R S T U V W X Y Z