Song name
# A B C D E F G H I J K L M N O P Q R S T U V W X Y Z

Sublime - Lincoln Highway Dub tab

Band: Sublime
Song: Lincoln Highway Dub
Album: Robbin' The Hood
Tuning: Normal - EADGBE

Hey everybody, Heartsmasher here, Producer extraordinaire (although I doubt that's
how you spell it; I never was one for English class). I know 90% of you are
probably at the tab by now (why else would you be here?) but just 'cause I can't
help myself, I have to plug my awful music while I've got your attention. You can
get it for free (That's right. I said FREE.) at www.soundcloud.com/heartsmasher.
On the new album, I have special guests David Guetta, Afrojack, Deadmau5, and a
few other people that have 100x the talent that I do helping out on tracks. Check
it out, won't ya?


  Intro:                        x2
e |------|---------------------|------------|---------------|
B |--x-x-|-10------------------|-5----------|-x-x-6---------|
G |--x-x-|-10------------------|-6----------|-x-x-7----9----|
D |--x-x-|-10------------------|-7----------|-x-x-7----10---|
A |------|-8-------(8)-(8)-(8)-|-7----------|-----5----10---|
E |------|----(8)--------------|-5-(5)-(5)--|----------8----|


  Bass break:
G |-----------------------------------------------------|
D |-----------------------8h10-8h10-7-7-----7-(7)-(7)---|
A |------8-8-8-8-10-8-(8)---------------7h9-------------|
E |-8h10------------------------------------------------|


  Guitar Chord Picking:                         x2
e |-------------------|-----------------------|-------------|---------------------|
B |-----6-----5h6p5---|-----------------------|-------------|---------5-----------|
G |-------7--------7--|------9----------------|------10-----|-----6-----6---------|
D |---7-----7---------|--------10-------------|---10----10--|-------7-----7-------|
A |-5-----------------|---10------10-------8--|-8-----------|---7-----------(7)---|
E |-------------------|-8--------------8h10---|-------------|-5-------------------|


      x2
e |----------|--------------------|
B |-----6----|--------------------|
G |-----7-7--|------9-------------|
D |---7------|--------10----------|
A |-5--------|---10---------------|
E |----------|-8----------8-7-6---|


  Solo:
e |----------------------------------------------------------------------------------|
B |----------------------------------------------------------------------------------|
G |---------------------------10-12/14---12-10-9h10p9--------------------------------|
D |------------------10-10/12-------------------------12-10h12--10h12-10p8-----------|
A |----------8-10/12-------------------------------------------------------10h11-8---|
E |-6-6-8/10-------------------------------------------------------------------------|

                                           Palm mute this part
                                        ...........
e |-----------------------------------------------------------------------------------------------|
B |-----------------------------------------------------------------------------6-----------------|
G |------------------------------------------------------------10-10--9-9--7--7---7----------9----|
D |------------------------------------12--[12-12-12-12]-12-10----------------------8-----10---10-|
A |----------------------------------8------------------------------------------------8-10--------|
E |-8h9h10-8h9h10-8h9h10-8h9h10-8-10--------------------------------------------------------------|


e |-------------------------------------------------------------------|
B |-------------------------------------------------------------------|
G |---------------10-12b-12-10-9--9-7-9v--7-7p5---5-------------------|
D |---------10-12-------------------------------7---7\5-3h5p3---------|
A |-8-10/12---------------------------------------------------5-5-5---|
E |-------------------------------------------------------------------|


           x4
e |--------------|--------------------------------------------------------|
B |--------------|----------------------6-5h6p5---------------------------|
G |--------------|------------------5h7---------5-7-------5h7-5-----------|
D |-----3-----3--|-----3-5-3h5-3h5/7----------------5/7---------7p5\3-3---|
A |-3h5---3h5----|-3h5----------------------------------------------------|
E |--------------|--------------------------------------------------------|


           x2
e |--------------|----------------------------------------------------------------------|
B |--------------|-------------------------------6-------6-----------6------------------|
G |--------------|---------------------------5-7---7-5h7----9--7--5-7---5h7-5-----------|
D |-----3-----3--|-----------3-3h5-3h5-3-5/7----------------------------------5h7-------|
A |-3h5---3h5----|-3-3-3-3h5------------------------------------------------------5h7---|
E |--------------|----------------------------------------------------------------------|

  This is where it gets a bit... advanced:
e |------------------------------------------------------------------------|
B |------------------------------------------------------------------------|
G |-----------------------------------5------------------------------------|
D |-----3h5h6p5-----------------3-5/7---7-5b-3--------5-3--5/7-5-3-3-2/3---|
A |-3h5---------3h5-------3h4h5----------------5-3h5p3---------------------|
E |------------------3h4h5-------------------------------------------------|


  Small Pause, then continue:                           x2
e |------------------8----------------|-8-------------|-8-8---|
B |---------------------8----------8--|---8-----------|-8-8---|
G |-9-9-9---9-9-9----------9-----9----|-----9-----9---|-------|
D |-------7-------7-----------10------|-------10--10--|-------|
A |-----------------------------------|---------------|-------|
E |-----------------------------------|---------------|-------|


  Big Pause, then continue:
e |-------------------------------------------------------------------------|
B |-------------------------------------------------------------------------|
G |-9--9-7-9v--7-7p5---5----------------------------------------------------|
D |------------------7---7\5-3-----------3--5-5-3-5-3h5-3----3-5/7-5-3-3-2/3|
A |----------------------------3h5---3-5------------------3h5---------------|
E |-------------------------------------------------------------------------|


  And fade out:
e |-8----8--8---8---|-6------8-------|
B |-8----8--8---8---|---6------8-----|
G |-9----9--9---9---|-----7------9---|
D |-10---10-10--10--|----------------|
A |-----------------|----------------|
E |-----------------|----------------|


KEYS:

x  Palm Mute      (#) Ghost Note
b  Bend            v  Vibrato
/  Slide Down      \  Slide Up
h  Hammer On       p  Pull Off
Tap to rate this tab
 
# A B C D E F G H I J K L M N O P Q R S T U V W X Y Z