Song name
# A B C D E F G H I J K L M N O P Q R S T U V W X Y Z

Sublime - Santeria tab

-------------------------------------------------------------------------------
                             Santeria - Sublime
-------------------------------------------------------------------------------
Tabbed by: zperez96
E-mail: zachperez96@yahoo.com

Tuning: standard

This is the most accurate interpretation as far as I know. I also added
chords in case you want to deviate.

INTRO
clean electric guitar w/analog phase (minimum speed, medium level)
    E                      G#             C#m                 B              
e|---------------------------------------------------------------------------|
B|---------------------------4----------------------5-----------7------------|
G|------9--------9-------------5--------------6-4-----6---4-------4----------|
D|----9---9--------9-9-----------6------6---6-----6-----6-6h7-------4--------|
A|--7-------7-7--------------------6--6---4-------------------6-------6------|
E|---------------------7\4-4-------------------------------------------------|

VERSE
clean electric guitar w/upstrokes
    E           G#          C#m         B               
e|--4--4--4--4--4--4--4--4--4--4--4--4--7--7--7--7---------------------------|
B|--5--5--5--5--4--4--4--4--5--5--5--5--7--7--7--7---------------------------|
G|--4--4--4--4--5--5--5--5--6--6--6--6--8--8--8--8---------------------------|
D|--6--6--6--6--6--6--6--6--6--6--6--6--9--9--9--9---------------------------|
A|---------------------------------------------------------------------------|
E|---------------------------------------------------------------------------|
    E           G#          C#m         B                
e|--4--4--4--4--4--4--4--4--4--4--4--4--7--7--7------------------------------|
B|--5--5--5--5--4--4--4--4--5--5--5--5--7--7--7------------------------------|
G|--4--4--4--4--5--5--5--5--6--6--6--6--8--8--8------------------------------|
D|--6--6--6--6--6--6--6--6--6--6--6--6--9--9--9------------------------------|
A|---------------------------------------------------------------------------|
E|---------------------------------------------------------------------------|

CHORUS
clean electric guitar
      A       B       E   B     C#m         A       B       E   B               
e|--7\5-------7-------4---------------------5-------7-------4----------------|
B|--7---5-------7-------5-------------5-------5-------7-------5--------------|
G|--8-----6/8-----8-----------4-----6---6-------6/8-----8-----------4--------|
D|--9---------------6-------4-----6-------6---------------6-------4----------|
A|------------------------6-----4-------------------------------6------------|
E|---------------------------------------------------------------------------|
    C#m         A       B       E   B     C#m         A       B                        
e|--------------5-------7-------4---------------------5-------7--------------|
B|--------5-------5-------7-------5-------------5-------5-------7------------|
G|------6---6-------6/8-----8-----------4-----6---6-------6/8-----8----------|
D|----6-------6---------------6-------4-----6-------6---------------9--------|
A|--4-------------------------------6-----4----------------------------------|
E|---------------------------------------------------------------------------|

VERSE
clean electric guitar w/upstrokes
    E           G#          C#m         B                 
e|--4--4--4--4--4--4--4--4--4--4--4--4--7--7--7--7---------------------------|
B|--5--5--5--5--4--4--4--4--5--5--5--5--7--7--7--7---------------------------|
G|--4--4--4--4--5--5--5--5--6--6--6--6--8--8--8--8---------------------------|
D|--6--6--6--6--6--6--6--6--6--6--6--6--9--9--9--9---------------------------|
A|---------------------------------------------------------------------------|
E|---------------------------------------------------------------------------|
    E           G#          C#m         B                    
e|--4--4--4--4--4--4--4--4--4--4--4--4--7--7--7------------------------------|
B|--5--5--5--5--4--4--4--4--5--5--5--5--7--7--7------------------------------|
G|--4--4--4--4--5--5--5--5--6--6--6--6--8--8--8------------------------------|
D|--6--6--6--6--6--6--6--6--6--6--6--6--9--9--9------------------------------|
A|---------------------------------------------------------------------------|
E|---------------------------------------------------------------------------|

CHORUS
clean electric guitar
      A       B       E   B     C#m         A       B       E   B             
e|--7\5-------7-------4---------------------5-------7-------4----------------|
B|--7---5-------7-------5-------------5-------5-------7-------5--------------|
G|--8-----6/8-----8-----------4-----6---6-------6/8-----8-----------4--------|
D|--9---------------6-------4-----6-------6---------------6-------4----------|
A|------------------------6-----4-------------------------------6------------|
E|---------------------------------------------------------------------------|
    C#m         A       B       E   B     C#m         A       B                
e|--------------5-------7-------4---------------------5-------7--------------|
B|--------5-------5-------7-------5-------------5-------5-------7------------|
G|------6---6-------6/8-----8-----------4-----6---6-------6/8-----8----------|
D|----6-------6---------------6-------4-----6-------6---------------9--------|
A|--4-------------------------------6-----4----------------------------------|
E|---------------------------------------------------------------------------|

SOLO
clean electric guitar
chord progression for solo: (E-G#-c#m-B)X2
e|---------------------------------------------------------------------------|
B|---------------------------------------------------------------------------|
G|---------------9--11^13-11-9-8~-8p6-8^9^8~--6-6p4---4----------------------|
D|----------9h11------------------------------------6---6-6^4p2-4p2---2------|
A|--7--9/11---------------------------------------------------------4---4----|
E|---------------------------------------------------------------------------|

e|--------------------------0--------9---------------------------------------|
B|------------------------5----12^14---12-9----------------------------------|
G|--------------------4h6-------------------11^13^11p9----9~-----------------|
D|--------------4h5h6----------------------------------11----11p9----9-------|
A|--------2h3h4---------------------------------------------------11---------|
E|--2h3h4--------------------------------------------------------------------|

e|----------------------------------9-----------9----------------------------|
B|----------------------------12------9---12------9--------------------------|
G|----------------------------11^13-----9-11^13-----9-11^13^11~--------------|
D|----------9------10----10~-------------------------------------------------|
A|--11p9-11---7/11----11-----------------------------------------------------|
E|---------------------------------------------------------------------------|
               A  
e|---------------------------------------------------------------------------|
B|---------------------------------------------------------------------------|
G|--13^11-9-11-9~------------------------------------------------------------|
D|---------------------------------------------------------------------------|
A|---------------------------------------------------------------------------|
E|---------------------------------------------------------------------------|

CHORUS
clean electric guitar
      B       E   B     C#m         A       B       E   B             
e|----7-------4---------------------5-------7-------4------------------------|
B|------7-------5-------------5-------5-------7-------5----------------------|
G|--------8-----------4-----6---6-------6/8-----8-----------4----------------|
D|--9-------6-------4-----6-------6---------------6-------4------------------|
A|----------------6-----4-------------------------------6--------------------|
E|---------------------------------------------------------------------------|
    C#m         A       B       E   B     C#m         A       B                
e|--------------5-------7-------4---------------------5-------7--------------|
B|--------5-------5-------7-------5-------------5-------5-------7------------|
G|------6---6-------6/8-----8-----------4-----6---6-------6/8-----8----------|
D|----6-------6---------------6-------4-----6-------6---------------9--------|
A|--4-------------------------------6-----4----------------------------------|
E|---------------------------------------------------------------------------|

VERSE
clean electric guitar w/upstrokes
    E           G#          C#m         B                 
e|--4--4--4--4--4--4--4--4--4--4--4--4--7--7--7--7---------------------------|
B|--5--5--5--5--4--4--4--4--5--5--5--5--7--7--7--7---------------------------|
G|--4--4--4--4--5--5--5--5--6--6--6--6--8--8--8--8---------------------------|
D|--6--6--6--6--6--6--6--6--6--6--6--6--9--9--9--9---------------------------|
A|---------------------------------------------------------------------------|
E|---------------------------------------------------------------------------|
    E           G#          C#m         B                 
e|--4--4--4--4--4--4--4--4--4--4--4--4--7--7--7------------------------------|
B|--5--5--5--5--4--4--4--4--5--5--5--5--7--7--7------------------------------|
G|--4--4--4--4--5--5--5--5--6--6--6--6--8--8--8------------------------------|
D|--6--6--6--6--6--6--6--6--6--6--6--6--9--9--9------------------------------|
A|---------------------------------------------------------------------------|
E|---------------------------------------------------------------------------|

CHORUS
clean electric guitar
      A       B       E   B     C#m         A       B       E   B             
e|--7\5-------7-------4---------------------5-------7-------4----------------|
B|--7---5-------7-------5-------------5-------5-------7-------5--------------|
G|--8-----6/8-----8-----------4-----6---6-------6/8-----8-----------4--------|
D|--9---------------6-------4-----6-------6---------------6-------4----------|
A|------------------------6-----4-------------------------------6------------|
E|---------------------------------------------------------------------------|
    C#m         A       B       E   B     C#m         A       B                
e|--------------5-------7-------4---------------------5-------7--------------|
B|--------5-------5-------7-------5-------------5-------5-------7------------|
G|------6---6-------6/8-----8-----------4-----6---6-------6/8-----8----------|
D|----6-------6---------------6-------4-----6-------6---------------9--------|
A|--4-------------------------------6-----4----------------------------------|
E|---------------------------------------------------------------------------|

OUTRO
clean electric guitar
    E5  D#5 C#5 B5  A5  B5  E7                   
e|---------------------------------------------------------------------------|
B|--------------------------5------------------------------------------------|
G|--9---8---6---4---2---4---7------------------------------------------------|
D|--x---x---x---x---x---x---6------------------------------------------------|
A|--7---6---4---2---0---2---7------------------------------------------------|
E|---------------------------------------------------------------------------|

And that's it. It's important to play it with a laid-back feel. 
I worked really hard on this so remember to rate!

************************************

| /   slide up
| \   slide down
| h   hammer-on
| p   pull-off
| ~   vibrato
| +   harmonic
| x   Mute note
| ^   Bend

************************************
Tap to rate this tab
# A B C D E F G H I J K L M N O P Q R S T U V W X Y Z