Song name
# A B C D E F G H I J K L M N O P Q R S T U V W X Y Z

Sublime - What I Got tab

What I Got: Sublime
Bradley Nowell

Standard Tuning

(h) Hammer On   (b) Bend


E|-------------------------------------------------------------------10----------------|
B|-----------------------------------------------------------10--12------12--12--10----|
G|--------------10----------------11------9------7--7--11--h12-------------------------|
D|------10--12------12--10--12----12------10-----9--9----------------------------------|
A|--12---------------------------------------------------------------------------------|
E|-------------------------------------------------------------------------------------|



E|----------------------------------------------------------------------------------|
B|----13--12--10--------------------------------------------------------------------|
G|----------------12b---------------------------------------------------------------|
D|----------------------------------------------------------------------------------|
A|----------------------------------------------------------------------------------|
E|----------------------------------------------------------------------------------|
Tap to rate this tab
 
# A B C D E F G H I J K L M N O P Q R S T U V W X Y Z