Song name
# A B C D E F G H I J K L M N O P Q R S T U V W X Y Z

Sublime - Falling Idols tab

###############################
# Title: Falling Idols
# Artist: Sublime
# Album: Robbin' The Hood
# Tuning: Standard (eBGDAE)
###############################

Key:
h = hammer on
p = pull off
/ = slide
x = mute strings and pick

e|---8--8---7-7--5-5--5-5--3-3--1-1--0-0-0-0-0----------------------|
B|---8--8---7-7--5-5--5-5--3-3--1-1--0-0-0-0-0----------------------|
G|---9--9---8-8--6-6--6-6--4-4--2-2--1-1-1-1-1----------------------|
D|---10-10--9-9--7-7--7-7--5-5--3-3--2-2-2-2-2----------------------|
A|------------------------------------------------------------------|
E|------------------------------------------------------------------|

e|---8--8---7-7--5-5--5-5--3-3--1-1--0------------------------------|
B|---8--8---7-7--5-5--5-5--3-3--1-1--0------------------------------|
G|---9--9---8-8--6-6--6-6--4-4--2-2--1------------------------------|
D|---10-10--9-9--7-7--7-7--5-5--3-3--2------------------------------|
A|------------------------------------------------------------------|
E|------------------------------------------------------------------|

e|---0---0-------1---1-------0---0-------1---1-------0------0b~-----|
B|---0-----0-----1-----1-----0-----0-----1-----1-----0------0b~-----|
G|---1-1-----1---2-2-----2---1-1-----1---2-2-----2---1-1-1--1b~-----|
D|---2-2---------3-3---------2-2---------3-3---------2-2-2--2b~-----|
A|--------------------------------------------------------(whammy)--|
E|------------------------------------------------------------------|
  0:23
e|---------------------------9p8------------------------------------|
B|----------8h10p8-7-7-7-7-8--------------8h10p8-7-7-7-7-8-7--------|
G|---/9-9-9------------------------/9-9-9---------------------------|
D|------------------------------------------------------------------| x 2
A|------------------------------------------------------------------|
E|------------------------------------------------------------------|

e|----------------------------------12-----------------13p12-12-----|
B|---9-99-99h9---9-9h10p9--9h10h12-----12--13-13-13-13--------------|
G|---9-99-99h10-----------------------------------------------------|
D|------------------------------------------------------------------|
A|------------------------------------------------------------------|
E|------------------------------------------------------------------|
  0:37
e|------------------------------------------------------------------|
B|--------------------------------------9---------------10----------|
G|-------9--------------10------------9---9----------10----10-------|
D|-----9---9---------10----10-------9-------9-----10----------10----|
A|---7-------7-----8----------8-------------------------------------|
E|------------------------------------------------------------------|

e|------------------------------------------------------------------|
B|------------------------------------------------------------------|
G|---9-9-8-9-10-10-10p9-----9p8h9p8--8p7h8p7--7p6h7--5p4------------|
D|---9-9-8-9-10-10--------------------------------------------------|
A|------------------------------------------------------------------|
E|------------------------------------------------------------------|
  0:45
e|------------------------------------------------------------------|
B|------------------------------------------------------------------|
G|---/14b-14-14--13-13-13-13--12-12----12---------------------------|
D|----------------------------------14----14------------------------|
A|------------------------------------------------------------------|
E|------------------------------------------------------------------|

e|------------------------------------------------------------------|
B|------17-----16-----15----14---------------14-----12----9---9-----|
G|---17-----16-----15----15----14---------14-----12-----9---9---9---|
D|------------------------------------------------------------------|
A|------------------------------------------------------------------|
E|------------------------------------------------------------------|
  0:52
e|------------------------------------------------------------------|
B|------------------------------------------------------------------|
G|------------------------------------------------------------------|
D|------------------------------------------------------------------|
A|------------------------------2-----------------------------------|
E|---0--0-0--3h5p3--2-2-2-2--3-------0--0-0--3h5p3--2-2-2-2--3--2---|

e|------------------------------------------------------------------|
B|------------------------------------------------------------------|
G|------------------------------------------------------------------|
D|------------------------------------------------------------------|
A|----------------------------2h3p2---------------------------------|
E|---0--0-0--3h5p3--2-2-2-2--3-------0--0-0--3h5p3--2-2-2-2--3--2---|
  1:00
e|------------------------------------------------------------------|
B|------------------------------------------------------------------|
G|-------9------10-10-10-10--10-10--------9------10-10-10-10--9-10--|
D|-----9---9----10-10-10-10--10-10------9---9----10-10-10-10--9-10--|
A|---7-------7-------------------------7------7---------------------|
E|------------------------------------------------------------------|

e|------------------------------------------------------------------|
B|------------------------------------------------------------------|
G|-------9--------------10--------------9--------------10-----------|
D|-----9---9---------10----10---------9---9---------10----10--------|
A|---7-------7-----8----------8-----7-------7-----8----------8------|
E|------------------------------------------------------------------|

e|---x---x---x----------------------x---X---x--------------------/x-|
B|---x---x---x----------------------x---x---x--------------------/x-|
G|---x-9-x-9-x-9---10-10-10-10-10---x-9-x-9-x-9---10-10-10-10-10-/x-|
D|---x-9-x-9-x-9---10-10-10-10-10---x-9-x-9-x-9---10-10-10-10-10-/x-|
A|---x-7-x-7-x-7---8--8--8--8--8----x-7-x-7-x-7---8--8--8--8--8--/x-|
E|---x---x---x----------------------x---x---x--------------------/x-|
  1:15                                        pick slide/scrape! ^^^
e|------------------------------------------------------------------|
B|------------------------------------------------------------------|
G|---9p8h9p8--8p7h8p7--7p6h7--5p4-----------------------------------|
D|------------------------------------------------------------------|
A|------------------------------------------------------------------|
E|------------------------------------------------------------------|

e|------------------------------------------------------------------|
B|------------------------------------------------------------------|
G|---/14b-14-14--13-13-13-13--12-12----12---------------------------|
D|----------------------------------14----14------------------------|
A|------------------------------------------------------------------|
E|------------------------------------------------------------------|

e|------------------------------------------------------------------|
B|------17-----16-----15----14---------------14-----12----9---9-----|
G|---17-----16-----15----15----14---------14-----12-----9---9---9---|
D|------------------------------------------------------------------|
A|------------------------------------------------------------------|
E|------------------------------------------------------------------|
  1:23
e|------------------------------------------------------------------|
B|------------------------------------------------------------------|
G|------------------------------------------------------------------|
D|------------------------------------------------------------------|
A|------------------------------2-----------------------------------|
E|---0--0-0--3h5p3--2-2-2-2--3-------0--0-0--3h5p3--2-2-2-2--3--2---|

e|------------------------------------------------------------------|
B|------------------------------------------------------------------|
G|------------------------------------------------------------------|
D|------------------------------------------------------------------|
A|----------------------------2h3p2---------------------------------|
E|---0--0-0--3h5p3--2-2-2-2--3-------0--0-0--3h5p3--2-2-2-2--3--2---|

e|------------------------------------------------------------------|
B|------------------------------------------------------------------|
G|-------9--------------10--------------9---------------------------|
D|-----9---9---------10----10---------9---9-------------------------|
A|---7-------7-----8----------8-----7-------7-----8-8-8-8-7-8-------|
E|------------------------------------------------------------------|

e|------------------------------------------------------------------|
B|------------------------------------------------------------------|
G|-------9--------------10--------------9--------------10-----------|
D|-----9---9---------10----10---------9---9---------10----10--------|
A|---7-------7-----8----------8-----7-------7-----8----------8------|
E|------------------------------------------------------------------|

e|-------x---x-------x----x----------x---x-------x----x----------/x-|
B|-------x---x-------x----x----------x---x-------x----x----------/x-|
G|---9-9-x-9-x----10-x-10-x-10---9-9-x-9-x----10-x-10-x-10-10-10-/x-|
D|---9-9-x-9-x----10-x-10-x-10---9-9-x-9-x----10-x-10-x-10-10-10-/x-|
A|---7-7-x-7-x----8--x-8--x-8----7-7-x-7-x----8--x-8--x-8--8--8--/x-|
E|-------x---x-------x----x----------x---x-------x----x----------/x-|
  1:45                                        pick slide/scrape! ^^^
e|------------------------------------------------------------------|
B|------------------------------------------------------------------|
G|---9p8h9p8--8p7h8p7--7p6h7--5p4-----------------------------------|
D|------------------------------------------------------------------|
A|------------------------------------------------------------------|
E|------------------------------------------------------------------|

e|------------------------------------------------------------------|
B|------------------------------------------------------------------|
G|---/14b-14-14--13-13-13-13--12-12----12---------------------------|
D|----------------------------------14----14------------------------|
A|------------------------------------------------------------------|
E|------------------------------------------------------------------|

e|------------------------------------------------------------------|
B|------17-----16-----15----14---------------14-----12----9---9-----|
G|---17-----16-----15----15----14---------14-----12-----9---9---9---|
D|------------------------------------------------------------------|
A|------------------------------------------------------------------|
E|------------------------------------------------------------------|
  1:53
e|---------------------------9p8------------------------------------|
B|----------8h10p8-7-7-7-7-8--------------8h10p8-7-7-7-7-8-7--------|
G|---/9-9-9------------------------/9-9-9---------------------------|
D|------------------------------------------------------------------| x 2
A|------------------------------------------------------------------|
E|------------------------------------------------------------------|

e|----------------------------------12-----------------13p12-12-----|
B|---9-99-99h9---9-9h10p9--9h10h12----12--13-13-13-13---------------|
G|---9-99-99h10-----------------------------------------------------|
D|------------------------------------------------------------------|
A|------------------------------------------------------------------|
E|------------------------------------------------------------------|
  2:05
e|------------------------------------------------------------------|
B|--------------------------------------9---------------10----------|
G|-------9--------------10------------9---9----------10----10-------|
D|-----9---9---------10----10-------9-------9-----10----------10----|
A|---7-------7-----8----------8-------------------------------------|
E|------------------------------------------------------------------|

e|------------------------------------------------------------------|
B|------------------------------------------------------------------|
G|---9-9-8-9-10-10-10p9-----9p8h9p8--8p7h8p7--7p6h7--5p4------------|
D|---9-9-8-9-10-10--------------------------------------------------|
A|------------------------------------------------------------------|
E|------------------------------------------------------------------|
  2:14
e|------------------------------------------------------------------|
B|------17-----16-----15----14---------------14-----12----9---9-----|
G|---17-----16-----15----15----14---------14-----12-----9---9---9---|
D|------------------------------------------------------------------|
A|------------------------------------------------------------------|
E|------------------------------------------------------------------|

e|------------------------------------------------------------------|
B|------------------------------------------------------------------|
G|---/14b-14-14--13-13-13-13--12-12----12---------------------------|
D|----------------------------------14----14------------------------|
A|------------------------------------------------------------------|
E|------------------------------------------------------------------|
  2:20
e|--x---x-------x----x------x---x-------x----x----------------------|
B|--x---x-------x----x------x---x-------x----x----------------------|
G|--x-9-x----10-x-10-x-10---x-9-x----10-x-10-x-10-------------------|
D|--x-9-x----10-x-10-x-10---x-9-x----10-x-10-x-10-------------------|
A|--x-7-x----8--x-8--x-8----x-7-x----8--x-8--x-8--------------------|
E|--x---x-------x----x------x---x-------x----x----------------------|

e|--x---x-------x----x------x---x-------x-------x-------------------|
B|--x---x-------x----x------x---x-------x-------x-------------------|
D|--x-9-x----10-x-10-x-10---x-9-x----10-x----10-x----9-b-10-----9---|
G|--x-9-x----10-x-10-x-10---x-9-x----10-x----10-x----9-b-10-----9---|
A|--x-7-x----8--x-8--x-8----x-7-x----8--x----8--x----7-b-8------7---|
E|--x---x-------x----x------x---x-------x-------x-------------------|

This song rocks!! Just wanted to perfect the little licks, love those riffs
RIP Bradley
Tap to rate this tab
 
# A B C D E F G H I J K L M N O P Q R S T U V W X Y Z