Song name
# A B C D E F G H I J K L M N O P Q R S T U V W X Y Z

Sublime - Work That We Do Live tab

-----------------------------------------------------------------------------
                                                Work That We Do - Sublime
-----------------------------------------------------------------------------
E-mail: ajk@hotmail.com

Tuning: Standard
Album: Stand By Your Van

The chords for the verse are A minor and D minor. listen to the song and use
upstrokes top 3 strings ebg when playing Am at certain parts.

Intro
e|---------------------------------------------------------------------------|
B|---------------------------------------------------------------------------|
G|---------------------------------------------------------------------------|
D|---------------------------------------------------------------------------|
A|-----------3-5-5-3-5-3---------3-5-----------------------------------------|
E|---5-5-5-5--------------3-5------------------------------------------------|

e|-------------------------------------------------------5-------------------|
B|-------------------------------------------------5-7^--5-------------------|
G|--------------------------------------5-5--------5-7^----7p5---5-7/9-------|
D|--------------------------------5h6h7-----7~--/7-------------7-------------|
A|-----------3-5-5-3-5-3--3h4h5----------------------------------------------|
E|---5-5-5-5-----------------------------------------------------------------|
                            Dm      Am    Dm Am
e|--------------------------5-5-----5--5--5--5-------------------------------|
B|----8-----7-----6-----5---6-6-----5--5--6--5-------------------------------|
G|--9---9-8---8-7---7-6-----7-7-----5--5--7--5-------------------------------|
D|--------------------------7-7-----7--7--7----------------------------------|
A|--------------------------5-5-----7--7--5----------------------------------|
E|--------------------------5-5-----5--5--5----------------------------------|

Repeat Am Dm Am through the song

************************************

| /   slide up
| \   slide down
| h   hammer-on
| p   pull-off
| ~   vibrato
| +   harmonic
| x   Mute note
| b   Bend
| pb  Pre-bend
| br  Bend release
| pbr Pre-bend release
| brb Bend release bend

************************************
Tap to rate this tab
# A B C D E F G H I J K L M N O P Q R S T U V W X Y Z