Song name
# A B C D E F G H I J K L M N O P Q R S T U V W X Y Z

Sublime - New Song tab

First chords

  B   F#  G#   E

e|7---2---4---7----|
B|7---2---4---9----|
G|8---3---4---9----|
D|9---4---6---9----|
A|9---4---6---7----|
E|7---2---4--------|


Second

  F#  G   G#

e|2---3---4-------|
B|2---3---4-------|
G|3---4---4-------|
D|4---5---6-------|
A|4---5---6-------|
E|2---3---4-------|
Tap to rate this tab
 
# A B C D E F G H I J K L M N O P Q R S T U V W X Y Z