Song name
# A B C D E F G H I J K L M N O P Q R S T U V W X Y Z

Sublime - Great Stone tab

I couldn't find the tabs to this song anywhere so I decided to tab it out myself.
This is probably one of the best sublime songs out there. I watched Bradley
play this in a live video and tabbed it out so it sounds extremely accurate to me.


Intro: (half palm muted)

This is also pretty much the bass line throughout the whole song

E---------------------|
B---------------------|
G---------------------|
D---------------------|
A---------------------|
e-5555-000-3h5-5-00-3-|




Rhythm throughout the whole song:

Brad pretty much just rocks an A bar chord the whole time but on every 8th time
he hits the G bar chord just once. This is all down strokes Reggae Stylee


     A  A  A  A  A  A  A  G
E----5--5--5--5--5--5--5--3-----------|
B----5--5--5--5--5--5--5--3-----------|
G----6--6--6--6--6--6--6--4-----------|
D----7--7--7--7--7--7--7--5-----------|
A----7--7--7--7--7--7--7--5-----------|
e----5--5--5--5--5--5--5--3-----------|
Tap to rate this tab
 
# A B C D E F G H I J K L M N O P Q R S T U V W X Y Z