Song name
# A B C D E F G H I J K L M N O P Q R S T U V W X Y Z

Sublime - Stp tab

-------------------------------------------------------------------------------
STP - Sublime
-------------------------------------------------------------------------------
Tabbed by:Msjk91
Email:Msjk91@aol.com


Tuning: Standard(EADGBe)

Intro/Chorus:  “All that I need.....” 
e|---------------------------------------------------------------------------|
B|-6----1----5----3----------------------------------------------------------|
G|-7----2----5----4----------------------------------------------------------|
D|-8----3----5----5----------------------------------------------------------|
A|-8----3----3----5----------------------------------------------------------|
E|-6----1---------3----------------------------------------------------------|

Verse 1: “Flava-Flave and ICE.....”
e|-5----0----3----5----------------------------------------------------------|
B|-5----0----3----7----------------------------------------------------------|
G|-6----1----4----7----------------------------------------------------------|
D|-7----2----5----7----------------------------------------------------------|
A|-7----2----5----5----------------------------------------------------------|
E|-5----0----3---------------------------------------------------------------|


Bridge:
e|-5--------5-----------------------------------------------------------------|
B|---5------5-----------------------------------------------------------------|
G|------6---6-----------------------------------------------------------------|
D|----------7-----------------------------------------------------------------|
A|----------7-------0---2---4-------------------------------------------------|
E|----------5-----------------------------------------------------------------|

e|-5---2---3---5-------------------------------------------------------------|
B|-7---3---3---5-------------------------------------------------------------|
G|-7---4---4---6-------------------------------------------------------------|
D|-7---4---5---7-------------------------------------------------------------|
A|-5---2---5---7-------------------------------------------------------------|
E|---------3---5-------------------------------------------------------------|


Verse 2: ‘have you seen......”
e|-5---2---3---5-------------------------------------------------------------|
B|-7---3---3---5-------------------------------------------------------------|
G|-7---4---4---6-------------------------------------------------------------|
D|-7---4---5---7-------------------------------------------------------------|
A|-5---2---5---7-------------------------------------------------------------|
E|---------3---5-------------------------------------------------------------|


Outro: “baby you wanna leave.....”
e|-5---5---------5------------------------------------------------------------|
B|-5---7----9-----5-----------------------------------------------------------|
G|-6---7----9-----6-----------------------------------------------------------|
D|-7---7----9-----7-----------------------------------------------------------|
A|-7---5—---7-----7-----------------------------------------------------------|
E|-5-------------5------------------------------------------------------------|


| /  slide up
| \  slide down
| h  hammer-on
| p  pull-off
| ~  vibrato
| +  harmonic
| x  Mute note
===============================================================================

Tap to rate this tab
 
# A B C D E F G H I J K L M N O P Q R S T U V W X Y Z