Song name
# A B C D E F G H I J K L M N O P Q R S T U V W X Y Z

Sublime - Pool Shark Acoustic tab

Just to let you guys know, this is the right way to play this but I'm not sure if if the 
strums of the power chords are right. It's just how I strum 'em.


Intro:

E------5-5-------------5----|
B------6-6-------------6----|Let ring
G------7---7-------7---7----|
D----0-------7---7---0------|
A--------------0-0----------|
E---------------------------|

Verse:

        2x              2x
E----------------|----------------|
B------7---------|----------------|
G--------7-------|----------------|
D----7-----7-----|----7--7--------|
A----5-----------|----7----7------|
E----------------|----5-----------|
    Lying in my...    How things...

        2x                2x
E----------------|--------------------------|
B----------------|------10------------------|
G------8---------|---------10---------------|
D--------8-------|---10---------------------|
A----8-----8-----|----8---------------------|
E----6-----------|--------------------------|
  My baby likes...      I like lying naked...

      2x               2x
E---------------|-------------------|
B---------------|------6------------|
G---------------|--------6----------|
D------4--------|----6-----6--------|
A----4---4------|----4--------------|
E----2----------|-------------------|
     Tying off...   Tonight it use...

E----9---9-9-9-9--|----------------------|
B----9---9-9-9-9--|----------------------|
G----9---9-9-9-9--|----------------------|
D----9-X-9-9-9-9--|----------------------|
A----7-X-7-7-7-7--|---9-X-9-9-9-9--------|
E-----------------|---7-X-7-7-7-7--------|
   Now I've got the  needle and I can't
   Shake but I can't breath now take it
   But I want more and more


E----11--11--------------11--11------|
B----11-----11-----------11-----11---|
G----11------------------11----------|
D----11------------------11----------|
A----9-------------------9-----------|
E------------------------------------|
      One day I'm gonna lose the war

2nd Verse:

      2x              2X
E--------------|----------------------|
B--------------|----------------------|
G--------------|----------------------|
D--------------|----6-X-6-6-----------|
A----4-X-4-4---|----4-X-4-4-----------|
E----2-X-2-2---|----------------------|
   Lyin in my...  How things weren't...

      2x                  2x
E------------------|------------------|
B------------------|------------------|
G------------------|------------------|
D----7-X-7-7-------|------------------|
A----5-X-5-5-------|----7-X-7-7-------|
E------------------|----5-X-5-5-------|
    My baby likes...   I like lying...

       2x              2x
E--------------|-------------------|
B--------------|-------------------|
G--------------|-------------------|
D--------------|----10-X-10-10-----|
A----8-X-8-8---|----8--X-8--8------|
E----6-X-6-6---|-------------------|
    Tying off...   Tonight it use...

E----11---11-11-11--|--------------------|
B----11---11-11-11--|--------------------|
G----11---11-11-11--|--------------------|
D----11-X-11-11-11--|--------------------|
A----9--X-9--9--9---|--11-X-11-11-11-----|
E-------------------|--9--X-9--9--9------|
    Now I've got the  needle and I can't
   Shake but I can't breath now take it
   But I want more and more


E----13-13------------13--13--13/-------------|
B----13----13---------13--13--13/-------------|Let ring
G----13-------13------13--13--13/-------------|
D----13---------------13--13--13/------2------|
A----11---------------11--11--13/------2------|
E--------------------------------------0------|
    One day I'm gonna lose the war


Just a little thing you can add at the end:

E------5/------------|
B------6/------------|
G------7/------------|
D----0---------------|
A--------------------|
E--------------------|

(When you play the slides, go down the frets)

This is my first tab. I hope you enjoy it!
Tap to rate this tab
# A B C D E F G H I J K L M N O P Q R S T U V W X Y Z