Song name
# A B C D E F G H I J K L M N O P Q R S T U V W X Y Z

Sublime - Lincoln Highway Dub tab

  ------------------------
 | ~Lincoln highway dub~  |
 |	  ~Sublime~	  |
  ------------------------

Album: Robbin' the Hood

Tabbed by: Jared Peterman    Email: Ninja216@comcast.net

Tuning: Normal - EADGBE

  Intro:
			x2
E |------|----(8)--------------|-5-(5)-(5)--|----------8----|
A |------|-8-------(8)-(8)-(8)-|-7----------|-----5----10---|
D |--x-x-|-10------------------|-7----------|-x-x-7----10---|
G |--x-x-|-10------------------|-6----------|-x-x-7----9----|
B |--x-x-|-10------------------|-5----------|-x-x-6---------|
e |------|---------------------|------------|---------------|

  Bass break:

E |-8h10------------------------------------------------|
A |------8-8-8-8-10-8-(8)---------------7h9-------------|
D |-----------------------8h10-8h10-7-7-----7-(7)-(7)---|
G |-----------------------------------------------------|

  Guitar Chord Picking:
						x2
E |-------------------|-8--------------8h10---|-------------|-5-------------------|
A |-5-----------------|---10------10-------8--|-8-----------|---7-----------(7)---|
D |---7-----7---------|--------10-------------|---10----10--|-------7-----7-------|
G |-------7--------7--|------9----------------|------10-----|-----6-----6---------|
B |-----6-----5h6p5---|-----------------------|-------------|---------5-----------|
e |-------------------|-----------------------|-------------|---------------------|

  Con.:
      x2
E |----------|-8----------8-7-6---|
A |-5--------|---10---------------|
D |---7------|--------10----------|
G |-----7-7--|------9-------------|
B |-----6----|--------------------|
e |----------|--------------------|

  Solo:

E |-6-6-8/10-------------------------------------------------------------------------|
A |----------8-10/12-------------------------------------------------------10h11-8---|
D |------------------10-10/12-------------------------12-10h12--10h12-10p8-----------|
G |---------------------------10-12/14---12-10-9h10p9--------------------------------|
B |----------------------------------------------------------------------------------|
e |----------------------------------------------------------------------------------|

  continuation:			   Palm mute this part
				        ...........
E |-8h9h10-8h9h10-8h9h10-8h9h10-8-10----------------------------------------------------------------|
A |----------------------------------8------------------------------------------------8-10----------|
D |------------------------------------12--[12-12-12-12]-12-10----------------------8-----10---10---|
G |------------------------------------------------------------10-10--9-9--7--7---7----------9------|
B |-----------------------------------------------------------------------------6-------------------|
e |-------------------------------------------------------------------------------------------------|

  Con.:

E |-------------------------------------------------------------------|
A |-8-10/12---------------------------------------------------5-5-5---|
D |---------10-12-------------------------------7---7\5-3h5p3---------|
G |---------------10-12b-12-10-9--9-7-9v--7-7p5---5-------------------|
B |-------------------------------------------------------------------|
e |-------------------------------------------------------------------|


	   x4
E |--------------|--------------------------------------------------------|
A |-3h5---3h5----|-3h5----------------------------------------------------|
D |-----3-----3--|-----3-5-3h5-3h5/7----------------5/7---------7p5\3-3---|
G |--------------|------------------5h7---------5-7-------5h7-5-----------|
B |--------------|----------------------6-5h6p5---------------------------|
e |--------------|--------------------------------------------------------|


	   x2
E |--------------|----------------------------------------------------------------------|
A |-3h5---3h5----|-3-3-3-3h5------------------------------------------------------5h7---|
D |-----3-----3--|-----------3-3h5-3h5-3-5/7----------------------------------5h7-------|
G |--------------|---------------------------5-7---7-5h7----9--7--5-7---5h7-5-----------|
B |--------------|-------------------------------6-------6-----------6------------------|
e |--------------|----------------------------------------------------------------------|

  This is where it gets real tuff:

E |------------------3h4h5-------------------------------------------------|
A |-3h5---------3h5-------3h4h5----------------5-3h5p3---------------------|
D |-----3h5h6p5-----------------3-5/7---7-5b-3--------5-3--5/7-5-3-3-2/3---|
G |-----------------------------------5------------------------------------|
B |------------------------------------------------------------------------|
e |------------------------------------------------------------------------|

  Small Pause, then continue:
						x2
E |-----------------------------------|---------------|-------|
A |-----------------------------------|---------------|-------|
D |-------7-------7-----------10------|-------10--10--|-------|
G |-9-9-9---9-9-9----------9-----9----|-----9-----9---|-------|
B |---------------------8----------8--|---8-----------|-8-8---|
e |------------------8----------------|-8-------------|-8-8---|

  Big Pause, then continue:

E |-----------------------------------------------------------------------------|
A |----------------------------3h5---3-5------------------3h5-------------------|
D |------------------7---7\5-3-----------3--5-5-3-5-3h5-3-----3-5/7-5-3-3-2/3---|
G |-9--9-7-9v--7-7p5---5--------------------------------------------------------|
B |-----------------------------------------------------------------------------|
e |-----------------------------------------------------------------------------|

  this part fades out:

E |-----------------|----------------|
A |-----------------|----------------|
D |-10---10-10--10--|----------------|
G |-9----9--9---9---|-----7------9---|
B |-8----8--8---8---|---6------8-----|
e |-8----8--8---8---|-6------8-------|



KEYS:

x  Palm Mute	  (#) Ghost Note

b  Bend		   v  Vibrato

/  Slide Down	   \  Slide Up

h  Hammer On	   p  Pull Off


	This was what I got out of the song. I'm sure it's not correct, but I
thoughtit was a good attempt at the song.  Hopefully this can help someone out
in learning how to play it.  if you have any questions, coments, corrections or
anything of that sort, feel free to e-mail me.
	If you want to use my tab for your site, go ahead, but please e-mail me so
I know.
Tap to rate this tab
# A B C D E F G H I J K L M N O P Q R S T U V W X Y Z