Song name
# A B C D E F G H I J K L M N O P Q R S T U V W X Y Z

Sublime - Work That We Do tab

ILL SONG

e--5--5--5--|
b--5--6--5--|
g--6--7--5--|
d--7-----7--|
a-----------|
E-----------|

These are the three ska chords used for the song, Brad also plays the bass line some of 
time. Jam around with the solo. Listen to the song to figure out the timing and the 
he uses. Best version is on "Stand By Your Van", the live cd.


g-------------------------------------|
d-------------------------------------|
a---------------------5--7-7---5-7-5--|
e---5--7-7---5--7-7-------------------|
Bass Line


BsA/SNorks/R.I.P. ODB/Bourgousie/Shout outs to C. Bear, Evan Gramz, Bill S, Beansy
Tap to rate this tab
# A B C D E F G H I J K L M N O P Q R S T U V W X Y Z