Song name
# A B C D E F G H I J K L M N O P Q R S T U V W X Y Z

Sublime - Tequilla tab

-------------------------------------------------------------------------------
			     SONG NAME: Tequilla Band Name: Sublime
-------------------------------------------------------------------------------
Tabbed by:66xatreyux66
Email:

Tuning: NORMAL

e|---5\7---7---7---7---7---7---7\5------------------------------------------------------|
B|---5\7---7---7---7---7---7---7\5------------------------------------------------------|
G|---6\8---8---8---8---8---8---8\6------------------------------------------------------|
D|---7\9---9---9---9---9---9---9\7------------------------------------------------------|
A|--------------------------------------------------------------------------------------|
E|--------------------------------------------------------------------------------------|
THATS ALL THE INTRO IS JUST REPEAT IT UNTIL THE VERSE
GREAT SONG BY SUBLIME


| /  slide up
| \  slide down
| h  hammer-on
| p  pull-off
| ~  vibrato
| +  harmonic
| x  Mute note
===============================================================================
Tap to rate this tab
 
# A B C D E F G H I J K L M N O P Q R S T U V W X Y Z