Song name
# A B C D E F G H I J K L M N O P Q R S T U V W X Y Z

Sublime - 40 Oz To Freedom Live tab

Tabbed by gin5446@aol.com

Verse and Chorus are fairly self-explanatory

Verse (barred chords) - A D E

Chrous - A C D


Solo (live version)

|--------------------12--||-15-14-12---------------------------------|
|---14--15--14-15-14-----||----------15-14-12------------------------|
|-14--14--14-------------||-------------------14-12--12-14-12--------|
|------------------------||-----------------------------------14-12--|
|------------------------||------------------------------------------|
|------------------------||------------------------------------------|

|-------------------------||-15-14-12----12-15-12--15-14-12----12-|
|---14--15--14--15--14-15-||----------15-----------------------15-|
|-14--14--14--14--14------||--------------------------------------|
|-------------------------||--------------------------------------|
|-------------------------||--------------------------------------|
|-------------------------||--------------------------------------|

|-17--15-14-12----12-15-12--15-14-12------------------------|
|--------------15--------------------15-14-12----------12---|
|---------------------------------------------14-12-14------|
|-----------------------------------------------------------|
|-----------------------------------------------------------|
|-----------------------------------------------------------|
 
                                     4x
|-------------------------||-15-14-12----------------|
|---14--15--14--15--14-15-||----------15-14-12-------|
|-14--14--14--14--14------||-------------------------|
|-------------------------||-------------------------|
|-------------------------||-------------------------|
|-------------------------||-------------------------|
Tap to rate this tab
 
# A B C D E F G H I J K L M N O P Q R S T U V W X Y Z