Song name
# A B C D E F G H I J K L M N O P Q R S T U V W X Y Z

Sublime - Death Angel tab

ok here is the tab


MAIN RIFF
----------------------------------------------------------------|
----------------------------------------------------------------|
----------------------------------------------------------------|
-------5-----------5------7-----5-------19----------------------|
-------3-----------3------5-----3-------18----------------------|
-------3-----------3------5-----3-------17----------------------|
every power chord strum 5 times

chorus
-----------------------------------------------------------|
-----------------------------------------------------------|
-----------------------------------------------------------|
--5----5----3----3-----------------------------------------|
--5----5----3----3-----------------------------------------|
--3----3----1----1-----------------------------------------|
Tap to rate this tab
# A B C D E F G H I J K L M N O P Q R S T U V W X Y Z