Song name
# A B C D E F G H I J K L M N O P Q R S T U V W X Y Z

Submersed - The Price Of Fame tab

Highlighted       Show chord diagrams
Tuning: Eb Ab Db Gb Bb Eb (standard half step down)

Intro

eb-|-------------0------------------------------------3---2--2-----2h3h5p3-----------|
Bb-|-------------0------------0h1p0-------------------3---3----3---------------------|
Gb-|-----------0------------0--------0--------------0-----2------2---------2/4h0-----|
Db-|---------2------------2-------------2---------0-------0--------------------------|
Ab-|-------2----------3------------------3-----2-------------------------------------|
Eb-|---0-----------------------------------3-----------------------------------------|

                 *My Mind's Dark and Dusty..
                                     *Do not disturb on the door


eb-|-------------0------------------------------------3---2---2---2h3--3-3--3p2--2---|
Bb-|-------------0------------0h1p0-------------------3---3---3---3----3-3--3----3---|
Gb-|-----------0------------0--------0--------------0-----2---2---2----2-2--2----2---|
Db-|---------2------------2-------------2---------0-------0---0---0----0-0--0----0---|
Ab-|-------2----------3------------------3-----2-------------------------------------|
Eb-|---0-----------------------------------3-----------------------------------------|

                *I lived in this madness
                                     *And wondered what it's all for


*Rest of the verse you just strum the chords


Em              C
      I've held onto my problems,

             G                    D          
      When I should have let them go

Em                      G
      I'm weak from the hatred that,

      C              D
      I have come to know


Chorus


G                      D
     This isn't what I wanted
   
            Em          C
     What I need now is you

     G           D
     Falling...  Drowning...

           Em                 C
     As my weight is breaking through

                 G
     Help me I'm falling 



Verse 
*Play the intro part for next 4 lines

Em              C
      When I think of how cheap,

          G                D          
      The price of fame has become,

Em                G
      Is it all worth it,

      C                D
      To try and be number one


*Just strum chords 


Em                 C
      It's hard to remember,
 
           G             D          
     who I was When this began,

Em                 G                          C
      It's hard to take the lessons that I've learned,

                 D
      And make amends,



Chorus again...


*Extra part to the end of the chorus

    D
I'm falling,




Bridge


C             G              D
Sleep on the sheets of this bed i've made 

C                     G                 D
A house of cards that I once made will fall today 

C               G          D
My times out of greed, of love and pain 

C               G                D  
It Will fall to me in the frozen rain



Chorus again... x2





Song Order:

Verse
Chorus
Verse
Chorus
Interlude
Chorus x2



| /  slide up
| \  slide down
| h  hammer-on
| p  pull-off
| ~  vibrato
| +  harmonic
| x  Mute note


Tap to rate this tab
# A B C D E F G H I J K L M N O P Q R S T U V W X Y Z