Song name
# A B C D E F G H I J K L M N O P Q R S T U V W X Y Z

Submersed - At First Sight tab

-------------------------------------------------------------------------------
			     AT FIRST SIGHT - Submersed
-------------------------------------------------------------------------------
Tabbed by:Monapy
Email:p.kennethw@gmail.com

Tuning:Half-step Down

|---------17--15----14h15-15-------14~-----------------------14~------------|
|-----15---------------------17---------15--17~----15--17-------------------|
|--/14--14--14--14--------14---14----/14--14----/14--14--14-----------------|
|---------------------------------------------------------------------------|
|---------------------------------------------------------------------------|
|---------------------------------------------------------------------------|

|---------17--15----14h15-15-------14~-----------------------14~------------|
|-----15---------------------17---------15--17~----15--17--------15~~-------|
|--/14--14--14--14--------14---14----/14--14----/14--14--14-----------------|
|---------------------------------------------------------------------------|
|---------------------------------------------------------------------------|
|---------------------------------------------------------------------------|
Tap to rate this tab
# A B C D E F G H I J K L M N O P Q R S T U V W X Y Z