Song name
# A B C D E F G H I J K L M N O P Q R S T U V W X Y Z

Submersed - Deny Me tab

h=hammer on
p=pull off
\/=strum down
^=strum up


e|-------------------------|---------------------------|
B|--------3----3---------3-|------------3--3p2p0-------|
G|-------------------------|--------2------------------|
D|------4----4-----4-------|---------------------------|
A|--0h2----------------2---|------4----4-------0-------|
E|-------------------------|--0h2----------------------|

e|-------------------------|---------------------------|
B|--------3----3---------3-|---------------------------|
G|-------------------------|--------4---2----2---------|
D|------4----4-----4-------|---------------------------|
A|--0h2----------------2---|------4--------4---4-------|
E|-------------------------|--0h2----------------------|

e|-------------------------|
B|-------------------------|
G|--------4---2------------|
D|-------------4p2---0-----|
A|------4------------------|
E|--0h2--------------------|
this is as close as i bothered getting. sounds about right...
you can play around with if you don't think its right.
play that 2 to 4 pull off 2 as fast as you can to get
it sounded good.
    \/  ^ \/    ^   \/
e|--x---x-x-----x---x----------|
B|--3---3-3-----2---2----------|
G|--x---x-x-----2---2----------|
D|--4---4-4-----2---2----------|
A|--2---2-2-----0---0---2p0----|
E|--x---x-x--------------------|
heres the start to the chords and junk. didnt really
bother figuring that much out. i'll deal with it
later if this gets good ratings and what not. email me at Robinson_Caleb@hotmail.com if 
wanna tell me somethin
 on how to improve or what song you want me to try to tab...
or whatever
Tap to rate this tab
# A B C D E F G H I J K L M N O P Q R S T U V W X Y Z